  0
SECTION
  2
HEADER
  9
$ACADVER
  1
AC1024
  9
$ACADMAINTVER
 70
     6
  9
$DWGCODEPAGE
  3
ANSI_932
  9
$INSBASE
 10
0.0
 20
0.0
 30
0.0
  9
$EXTMIN
 10
1.000000000000000E+20
 20
1.000000000000000E+20
 30
1.000000000000000E+20
  9
$EXTMAX
 10
-1.000000000000000E+20
 20
-1.000000000000000E+20
 30
-1.000000000000000E+20
  9
$LIMMIN
 10
0.0
 20
0.0
  9
$LIMMAX
 10
12.0
 20
9.0
  9
$ORTHOMODE
 70
     0
  9
$REGENMODE
 70
     1
  9
$FILLMODE
 70
     1
  9
$QTEXTMODE
 70
     0
  9
$MIRRTEXT
 70
     1
  9
$LTSCALE
 40
1.0
  9
$ATTMODE
 70
     1
  9
$TEXTSIZE
 40
0.2
  9
$TRACEWID
 40
0.05
  9
$TEXTSTYLE
  7
Standard
  9
$CLAYER
  8
0
  9
$CELTYPE
  6
ByLayer
  9
$CECOLOR
 62
   256
  9
$CELTSCALE
 40
1.0
  9
$DISPSILH
 70
     0
  9
$DIMSCALE
 40
1.0
  9
$DIMASZ
 40
0.18
  9
$DIMEXO
 40
0.0625
  9
$DIMDLI
 40
0.38
  9
$DIMRND
 40
0.0
  9
$DIMDLE
 40
0.0
  9
$DIMEXE
 40
0.18
  9
$DIMTP
 40
0.0
  9
$DIMTM
 40
0.0
  9
$DIMTXT
 40
0.18
  9
$DIMCEN
 40
0.09
  9
$DIMTSZ
 40
0.0
  9
$DIMTOL
 70
     0
  9
$DIMLIM
 70
     0
  9
$DIMTIH
 70
     1
  9
$DIMTOH
 70
     1
  9
$DIMSE1
 70
     0
  9
$DIMSE2
 70
     0
  9
$DIMTAD
 70
     0
  9
$DIMZIN
 70
     0
  9
$DIMBLK
  1

  9
$DIMASO
 70
     1
  9
$DIMSHO
 70
     1
  9
$DIMPOST
  1

  9
$DIMAPOST
  1

  9
$DIMALT
 70
     0
  9
$DIMALTD
 70
     2
  9
$DIMALTF
 40
25.4
  9
$DIMLFAC
 40
1.0
  9
$DIMTOFL
 70
     0
  9
$DIMTVP
 40
0.0
  9
$DIMTIX
 70
     0
  9
$DIMSOXD
 70
     0
  9
$DIMSAH
 70
     0
  9
$DIMBLK1
  1

  9
$DIMBLK2
  1

  9
$DIMSTYLE
  2
Standard
  9
$DIMCLRD
 70
     0
  9
$DIMCLRE
 70
     0
  9
$DIMCLRT
 70
     0
  9
$DIMTFAC
 40
1.0
  9
$DIMGAP
 40
0.09
  9
$DIMJUST
 70
     0
  9
$DIMSD1
 70
     0
  9
$DIMSD2
 70
     0
  9
$DIMTOLJ
 70
     1
  9
$DIMTZIN
 70
     0
  9
$DIMALTZ
 70
     0
  9
$DIMALTTZ
 70
     0
  9
$DIMUPT
 70
     0
  9
$DIMDEC
 70
     4
  9
$DIMTDEC
 70
     4
  9
$DIMALTU
 70
     2
  9
$DIMALTTD
 70
     2
  9
$DIMTXSTY
  7
Standard
  9
$DIMAUNIT
 70
     0
  9
$DIMADEC
 70
     0
  9
$DIMALTRND
 40
0.0
  9
$DIMAZIN
 70
     0
  9
$DIMDSEP
 70
    46
  9
$DIMATFIT
 70
     3
  9
$DIMFRAC
 70
     0
  9
$DIMLDRBLK
  1

  9
$DIMLUNIT
 70
     2
  9
$DIMLWD
 70
    -2
  9
$DIMLWE
 70
    -2
  9
$DIMTMOVE
 70
     0
  9
$DIMFXL
 40
1.0
  9
$DIMFXLON
 70
     0
  9
$DIMJOGANG
 40
0.7853981633974483
  9
$DIMTFILL
 70
     0
  9
$DIMTFILLCLR
 70
     0
  9
$DIMARCSYM
 70
     0
  9
$DIMLTYPE
  6

  9
$DIMLTEX1
  6

  9
$DIMLTEX2
  6

  9
$DIMTXTDIRECTION
 70
     0
  9
$LUNITS
 70
     2
  9
$LUPREC
 70
     4
  9
$SKETCHINC
 40
0.1
  9
$FILLETRAD
 40
0.5
  9
$AUNITS
 70
     0
  9
$AUPREC
 70
     0
  9
$MENU
  1
.
  9
$ELEVATION
 40
0.0
  9
$PELEVATION
 40
0.0
  9
$THICKNESS
 40
0.0
  9
$LIMCHECK
 70
     0
  9
$CHAMFERA
 40
0.5
  9
$CHAMFERB
 40
0.5
  9
$CHAMFERC
 40
1.0
  9
$CHAMFERD
 40
0.0
  9
$SKPOLY
 70
     0
  9
$TDCREATE
 40
2459368.461486713
  9
$TDUCREATE
 40
2459368.086486713
  9
$TDUPDATE
 40
2459368.461487025
  9
$TDUUPDATE
 40
2459368.086487025
  9
$TDINDWG
 40
0.0000000116
  9
$TDUSRTIMER
 40
0.0000000116
  9
$USRTIMER
 70
     1
  9
$ANGBASE
 50
0.0
  9
$ANGDIR
 70
     0
  9
$PDMODE
 70
     0
  9
$PDSIZE
 40
0.0
  9
$PLINEWID
 40
0.0
  9
$SPLFRAME
 70
     0
  9
$SPLINETYPE
 70
     6
  9
$SPLINESEGS
 70
     8
  9
$HANDSEED
  5
2F1
  9
$SURFTAB1
 70
     6
  9
$SURFTAB2
 70
     6
  9
$SURFTYPE
 70
     6
  9
$SURFU
 70
     6
  9
$SURFV
 70
     6
  9
$UCSBASE
  2

  9
$UCSNAME
  2

  9
$UCSORG
 10
0.0
 20
0.0
 30
0.0
  9
$UCSXDIR
 10
1.0
 20
0.0
 30
0.0
  9
$UCSYDIR
 10
0.0
 20
1.0
 30
0.0
  9
$UCSORTHOREF
  2

  9
$UCSORTHOVIEW
 70
     0
  9
$UCSORGTOP
 10
0.0
 20
0.0
 30
0.0
  9
$UCSORGBOTTOM
 10
0.0
 20
0.0
 30
0.0
  9
$UCSORGLEFT
 10
0.0
 20
0.0
 30
0.0
  9
$UCSORGRIGHT
 10
0.0
 20
0.0
 30
0.0
  9
$UCSORGFRONT
 10
0.0
 20
0.0
 30
0.0
  9
$UCSORGBACK
 10
0.0
 20
0.0
 30
0.0
  9
$PUCSBASE
  2

  9
$PUCSNAME
  2

  9
$PUCSORG
 10
0.0
 20
0.0
 30
0.0
  9
$PUCSXDIR
 10
1.0
 20
0.0
 30
0.0
  9
$PUCSYDIR
 10
0.0
 20
1.0
 30
0.0
  9
$PUCSORTHOREF
  2

  9
$PUCSORTHOVIEW
 70
     0
  9
$PUCSORGTOP
 10
0.0
 20
0.0
 30
0.0
  9
$PUCSORGBOTTOM
 10
0.0
 20
0.0
 30
0.0
  9
$PUCSORGLEFT
 10
0.0
 20
0.0
 30
0.0
  9
$PUCSORGRIGHT
 10
0.0
 20
0.0
 30
0.0
  9
$PUCSORGFRONT
 10
0.0
 20
0.0
 30
0.0
  9
$PUCSORGBACK
 10
0.0
 20
0.0
 30
0.0
  9
$USERI1
 70
     0
  9
$USERI2
 70
     0
  9
$USERI3
 70
     0
  9
$USERI4
 70
     0
  9
$USERI5
 70
     0
  9
$USERR1
 40
0.0
  9
$USERR2
 40
0.0
  9
$USERR3
 40
0.0
  9
$USERR4
 40
0.0
  9
$USERR5
 40
0.0
  9
$WORLDVIEW
 70
     1
  9
$SHADEDGE
 70
     3
  9
$SHADEDIF
 70
    70
  9
$TILEMODE
 70
     1
  9
$MAXACTVP
 70
    64
  9
$PINSBASE
 10
0.0
 20
0.0
 30
0.0
  9
$PLIMCHECK
 70
     0
  9
$PEXTMIN
 10
1.000000000000000E+20
 20
1.000000000000000E+20
 30
1.000000000000000E+20
  9
$PEXTMAX
 10
-1.000000000000000E+20
 20
-1.000000000000000E+20
 30
-1.000000000000000E+20
  9
$PLIMMIN
 10
0.0
 20
0.0
  9
$PLIMMAX
 10
12.0
 20
9.0
  9
$UNITMODE
 70
     0
  9
$VISRETAIN
 70
     1
  9
$PLINEGEN
 70
     0
  9
$PSLTSCALE
 70
     1
  9
$TREEDEPTH
 70
  3020
  9
$CMLSTYLE
  2
Standard
  9
$CMLJUST
 70
     0
  9
$CMLSCALE
 40
1.0
  9
$PROXYGRAPHICS
 70
     1
  9
$MEASUREMENT
 70
     0
  9
$CELWEIGHT
370
    -1
  9
$ENDCAPS
280
     0
  9
$JOINSTYLE
280
     0
  9
$LWDISPLAY
290
     1
  9
$INSUNITS
 70
     4
  9
$HYPERLINKBASE
  1

  9
$STYLESHEET
  1

  9
$XEDIT
290
     1
  9
$CEPSNTYPE
380
     0
  9
$PSTYLEMODE
290
     1
  9
$FINGERPRINTGUID
  2
{08B6FD89-B02C-4D4B-8349-D0D9E0472553}
  9
$VERSIONGUID
  2
{FAEB1C32-E019-11D5-929B-00C0DF256EC4}
  9
$EXTNAMES
290
     1
  9
$PSVPSCALE
 40
0.0
  9
$OLESTARTUP
290
     0
  9
$SORTENTS
280
   127
  9
$INDEXCTL
280
     0
  9
$HIDETEXT
280
     1
  9
$XCLIPFRAME
280
     2
  9
$HALOGAP
280
     0
  9
$OBSCOLOR
 70
   257
  9
$OBSLTYPE
280
     0
  9
$INTERSECTIONDISPLAY
280
     0
  9
$INTERSECTIONCOLOR
 70
   257
  9
$DIMASSOC
280
     2
  9
$PROJECTNAME
  1

  9
$CAMERADISPLAY
290
     0
  9
$LENSLENGTH
 40
50.0
  9
$CAMERAHEIGHT
 40
0.0
  9
$STEPSPERSEC
 40
2.0
  9
$STEPSIZE
 40
6.0
  9
$3DDWFPREC
 40
2.0
  9
$PSOLWIDTH
 40
0.25
  9
$PSOLHEIGHT
 40
4.0
  9
$LOFTANG1
 40
1.570796326794897
  9
$LOFTANG2
 40
1.570796326794897
  9
$LOFTMAG1
 40
0.0
  9
$LOFTMAG2
 40
0.0
  9
$LOFTPARAM
 70
     7
  9
$LOFTNORMALS
280
     1
  9
$LATITUDE
 40
37.795
  9
$LONGITUDE
 40
-122.394
  9
$NORTHDIRECTION
 40
0.0
  9
$TIMEZONE
 70
 -8000
  9
$LIGHTGLYPHDISPLAY
280
     1
  9
$TILEMODELIGHTSYNCH
280
     1
  9
$CMATERIAL
347
3C
  9
$SOLIDHIST
280
     1
  9
$SHOWHIST
280
     1
  9
$DWFFRAME
280
     2
  9
$DGNFRAME
280
     2
  9
$REALWORLDSCALE
290
     1
  9
$INTERFERECOLOR
 62
   256
  9
$CSHADOW
280
     0
  9
$SHADOWPLANELOCATION
 40
0.0
  0
ENDSEC
  0
SECTION
  2
CLASSES
  0
CLASS
  1
ACDBDICTIONARYWDFLT
  2
AcDbDictionaryWithDefault
  3
ObjectDBX Classes
 90
        0
 91
        4
280
     0
281
     0
  0
CLASS
  1
VISUALSTYLE
  2
AcDbVisualStyle
  3
ObjectDBX Classes
 90
     4095
 91
        4
280
     0
281
     0
  0
CLASS
  1
MATERIAL
  2
AcDbMaterial
  3
ObjectDBX Classes
 90
     1153
 91
        4
280
     0
281
     0
  0
CLASS
  1
SUN
  2
AcDbSun
  3
SCENEOE
 90
     1024
 91
        4
280
     0
281
     0
  0
ENDSEC
  0
SECTION
  2
TABLES
  0
TABLE
  2
VPORT
  5
8
330
0
100
AcDbSymbolTable
 70
     1
  0
VPORT
  5
29
330
8
100
AcDbSymbolTableRecord
100
AcDbViewportTableRecord
  2
*Active
 70
     0
 10
0.0
 20
0.0
 11
1.0
 21
1.0
 12
0.0
 22
0.0
 13
0.0
 23
0.0
 14
0.5
 24
0.5
 15
0.5
 25
0.5
 16
0.0
 26
0.0
 36
1.0
 17
104.9999999737534
 27
-148.4999999628701
 37
0.0
 40
296.9999999257402
 41
0.7070707070707533
 42
50.0
 43
0.0
 44
0.0
 50
0.0
 51
0.0
 71
     0
 72
   100
 73
     1
 74
     3
 75
     0
 76
     0
 77
     0
 78
     0
281
     0
 65
     1
110
0.0
120
0.0
130
0.0
111
1.0
121
0.0
131
0.0
112
0.0
122
1.0
132
0.0
 79
     0
146
0.0
 60
     3
 61
     5
292
     1
282
     1
141
0.0
142
0.0
 63
   250
361
3F
  0
ENDTAB
  0
TABLE
  2
LTYPE
  5
5
330
0
100
AcDbSymbolTable
 70
     1
  0
LTYPE
  5
14
330
5
100
AcDbSymbolTableRecord
100
AcDbLinetypeTableRecord
  2
ByBlock
 70
     0
  3

 72
    65
 73
     0
 40
0.0
  0
LTYPE
  5
15
330
5
100
AcDbSymbolTableRecord
100
AcDbLinetypeTableRecord
  2
ByLayer
 70
     0
  3

 72
    65
 73
     0
 40
0.0
  0
LTYPE
  5
16
330
5
100
AcDbSymbolTableRecord
100
AcDbLinetypeTableRecord
  2
Continuous
 70
     0
  3
Solid line
 72
    65
 73
     0
 40
0.0
  0
ENDTAB
  0
TABLE
  2
LAYER
  5
2
330
0
100
AcDbSymbolTable
 70
     2
  0
LAYER
  5
10
330
2
100
AcDbSymbolTableRecord
100
AcDbLayerTableRecord
  2
0
 70
     0
 62
     7
  6
Continuous
370
    -3
390
F
347
3E
  0
LAYER
  5
40
330
2
100
AcDbSymbolTableRecord
100
AcDbLayerTableRecord
  2
_U+30EC_U+30A4_U+30E4_U+30FC 1
 70
     0
 62
     7
  6
Continuous
370
    -3
390
F
347
3E
  0
ENDTAB
  0
TABLE
  2
STYLE
  5
3
330
0
100
AcDbSymbolTable
 70
     1
  0
STYLE
  5
11
330
3
100
AcDbSymbolTableRecord
100
AcDbTextStyleTableRecord
  2
Standard
 70
     0
 40
0.0
 41
1.0
 50
0.0
 71
     0
 42
0.2
  3
txt
  4

  0
ENDTAB
  0
TABLE
  2
VIEW
  5
6
330
0
100
AcDbSymbolTable
 70
     0
  0
ENDTAB
  0
TABLE
  2
UCS
  5
7
330
0
100
AcDbSymbolTable
 70
     0
  0
ENDTAB
  0
TABLE
  2
APPID
  5
9
330
0
100
AcDbSymbolTable
 70
     1
  0
APPID
  5
12
330
9
100
AcDbSymbolTableRecord
100
AcDbRegAppTableRecord
  2
ACAD
 70
     0
  0
ENDTAB
  0
TABLE
  2
DIMSTYLE
  5
A
330
0
100
AcDbSymbolTable
 70
     1
100
AcDbDimStyleTable
  0
DIMSTYLE
105
27
330
A
100
AcDbSymbolTableRecord
100
AcDbDimStyleTableRecord
  2
Standard
 70
     0
178
     0
340
11
  0
ENDTAB
  0
TABLE
  2
BLOCK_RECORD
  5
1
330
0
100
AcDbSymbolTable
 70
    36
  0
BLOCK_RECORD
  5
1F
330
1
100
AcDbSymbolTableRecord
100
AcDbBlockTableRecord
  2
*Model_Space
340
22
 70
     0
280
     1
281
     0
  0
BLOCK_RECORD
  5
1B
330
1
100
AcDbSymbolTableRecord
100
AcDbBlockTableRecord
  2
*Paper_Space
340
1E
 70
     0
280
     1
281
     0
  0
BLOCK_RECORD
  5
23
330
1
100
AcDbSymbolTableRecord
100
AcDbBlockTableRecord
  2
*Paper_Space0
340
26
 70
     0
280
     1
281
     0
  0
BLOCK_RECORD
  5
41
330
1
100
AcDbSymbolTableRecord
100
AcDbBlockTableRecord
  2
block 2
340
0
102
{BLKREFS
331
42
102
}
 70
     0
280
     1
281
     0
  0
BLOCK_RECORD
  5
45
330
1
100
AcDbSymbolTableRecord
100
AcDbBlockTableRecord
  2
block 3
340
0
102
{BLKREFS
331
46
102
}
 70
     0
280
     1
281
     0
  0
BLOCK_RECORD
  5
4D
330
1
100
AcDbSymbolTableRecord
100
AcDbBlockTableRecord
  2
block 4
340
0
102
{BLKREFS
331
4E
102
}
 70
     0
280
     1
281
     0
  0
BLOCK_RECORD
  5
55
330
1
100
AcDbSymbolTableRecord
100
AcDbBlockTableRecord
  2
block 5
340
0
102
{BLKREFS
331
56
102
}
 70
     0
280
     1
281
     0
  0
BLOCK_RECORD
  5
94
330
1
100
AcDbSymbolTableRecord
100
AcDbBlockTableRecord
  2
block 6
340
0
102
{BLKREFS
331
95
102
}
 70
     0
280
     1
281
     0
  0
BLOCK_RECORD
  5
A5
330
1
100
AcDbSymbolTableRecord
100
AcDbBlockTableRecord
  2
block 7
340
0
102
{BLKREFS
331
A6
102
}
 70
     0
280
     1
281
     0
  0
BLOCK_RECORD
  5
B7
330
1
100
AcDbSymbolTableRecord
100
AcDbBlockTableRecord
  2
block 8
340
0
102
{BLKREFS
331
B8
102
}
 70
     0
280
     1
281
     0
  0
BLOCK_RECORD
  5
BF
330
1
100
AcDbSymbolTableRecord
100
AcDbBlockTableRecord
  2
block 9
340
0
102
{BLKREFS
331
C0
102
}
 70
     0
280
     1
281
     0
  0
BLOCK_RECORD
  5
C7
330
1
100
AcDbSymbolTableRecord
100
AcDbBlockTableRecord
  2
block 10
340
0
102
{BLKREFS
331
C8
102
}
 70
     0
280
     1
281
     0
  0
BLOCK_RECORD
  5
CF
330
1
100
AcDbSymbolTableRecord
100
AcDbBlockTableRecord
  2
block 11
340
0
102
{BLKREFS
331
D0
102
}
 70
     0
280
     1
281
     0
  0
BLOCK_RECORD
  5
DE
330
1
100
AcDbSymbolTableRecord
100
AcDbBlockTableRecord
  2
block 12
340
0
102
{BLKREFS
331
DF
102
}
 70
     0
280
     1
281
     0
  0
BLOCK_RECORD
  5
E3
330
1
100
AcDbSymbolTableRecord
100
AcDbBlockTableRecord
  2
block 13
340
0
102
{BLKREFS
331
E4
102
}
 70
     0
280
     1
281
     0
  0
BLOCK_RECORD
  5
E8
330
1
100
AcDbSymbolTableRecord
100
AcDbBlockTableRecord
  2
block 14
340
0
102
{BLKREFS
331
E9
102
}
 70
     0
280
     1
281
     0
  0
BLOCK_RECORD
  5
F0
330
1
100
AcDbSymbolTableRecord
100
AcDbBlockTableRecord
  2
block 15
340
0
102
{BLKREFS
331
F1
102
}
 70
     0
280
     1
281
     0
  0
BLOCK_RECORD
  5
F8
330
1
100
AcDbSymbolTableRecord
100
AcDbBlockTableRecord
  2
block 16
340
0
102
{BLKREFS
331
F9
102
}
 70
     0
280
     1
281
     0
  0
BLOCK_RECORD
  5
117
330
1
100
AcDbSymbolTableRecord
100
AcDbBlockTableRecord
  2
block 17
340
0
102
{BLKREFS
331
118
102
}
 70
     0
280
     1
281
     0
  0
BLOCK_RECORD
  5
135
330
1
100
AcDbSymbolTableRecord
100
AcDbBlockTableRecord
  2
block 18
340
0
102
{BLKREFS
331
136
102
}
 70
     0
280
     1
281
     0
  0
BLOCK_RECORD
  5
13D
330
1
100
AcDbSymbolTableRecord
100
AcDbBlockTableRecord
  2
block 19
340
0
102
{BLKREFS
331
13E
102
}
 70
     0
280
     1
281
     0
  0
BLOCK_RECORD
  5
145
330
1
100
AcDbSymbolTableRecord
100
AcDbBlockTableRecord
  2
block 20
340
0
102
{BLKREFS
331
146
102
}
 70
     0
280
     1
281
     0
  0
BLOCK_RECORD
  5
14A
330
1
100
AcDbSymbolTableRecord
100
AcDbBlockTableRecord
  2
block 21
340
0
102
{BLKREFS
331
14B
102
}
 70
     0
280
     1
281
     0
  0
BLOCK_RECORD
  5
14F
330
1
100
AcDbSymbolTableRecord
100
AcDbBlockTableRecord
  2
block 22
340
0
102
{BLKREFS
331
150
102
}
 70
     0
280
     1
281
     0
  0
BLOCK_RECORD
  5
154
330
1
100
AcDbSymbolTableRecord
100
AcDbBlockTableRecord
  2
block 23
340
0
102
{BLKREFS
331
155
102
}
 70
     0
280
     1
281
     0
  0
BLOCK_RECORD
  5
159
330
1
100
AcDbSymbolTableRecord
100
AcDbBlockTableRecord
  2
block 24
340
0
102
{BLKREFS
331
15A
102
}
 70
     0
280
     1
281
     0
  0
BLOCK_RECORD
  5
168
330
1
100
AcDbSymbolTableRecord
100
AcDbBlockTableRecord
  2
block 25
340
0
102
{BLKREFS
331
169
102
}
 70
     0
280
     1
281
     0
  0
BLOCK_RECORD
  5
1BA
330
1
100
AcDbSymbolTableRecord
100
AcDbBlockTableRecord
  2
block 26
340
0
102
{BLKREFS
331
1BB
102
}
 70
     0
280
     1
281
     0
  0
BLOCK_RECORD
  5
1C6
330
1
100
AcDbSymbolTableRecord
100
AcDbBlockTableRecord
  2
block 27
340
0
102
{BLKREFS
331
1C7
102
}
 70
     0
280
     1
281
     0
  0
BLOCK_RECORD
  5
1CB
330
1
100
AcDbSymbolTableRecord
100
AcDbBlockTableRecord
  2
block 28
340
0
102
{BLKREFS
331
1CC
102
}
 70
     0
280
     1
281
     0
  0
BLOCK_RECORD
  5
21E
330
1
100
AcDbSymbolTableRecord
100
AcDbBlockTableRecord
  2
block 29
340
0
102
{BLKREFS
331
21F
102
}
 70
     0
280
     1
281
     0
  0
BLOCK_RECORD
  5
226
330
1
100
AcDbSymbolTableRecord
100
AcDbBlockTableRecord
  2
block 30
340
0
102
{BLKREFS
331
227
102
}
 70
     0
280
     1
281
     0
  0
BLOCK_RECORD
  5
22E
330
1
100
AcDbSymbolTableRecord
100
AcDbBlockTableRecord
  2
block 31
340
0
102
{BLKREFS
331
22F
102
}
 70
     0
280
     1
281
     0
  0
BLOCK_RECORD
  5
236
330
1
100
AcDbSymbolTableRecord
100
AcDbBlockTableRecord
  2
block 32
340
0
102
{BLKREFS
331
237
102
}
 70
     0
280
     1
281
     0
  0
BLOCK_RECORD
  5
263
330
1
100
AcDbSymbolTableRecord
100
AcDbBlockTableRecord
  2
block 33
340
0
102
{BLKREFS
331
264
102
}
 70
     0
280
     1
281
     0
  0
BLOCK_RECORD
  5
268
330
1
100
AcDbSymbolTableRecord
100
AcDbBlockTableRecord
  2
block 34
340
0
102
{BLKREFS
331
269
102
}
 70
     0
280
     1
281
     0
  0
BLOCK_RECORD
  5
26D
330
1
100
AcDbSymbolTableRecord
100
AcDbBlockTableRecord
  2
block 35
340
0
102
{BLKREFS
331
26E
102
}
 70
     0
280
     1
281
     0
  0
BLOCK_RECORD
  5
2AF
330
1
100
AcDbSymbolTableRecord
100
AcDbBlockTableRecord
  2
block 36
340
0
102
{BLKREFS
331
2B0
102
}
 70
     0
280
     1
281
     0
  0
ENDTAB
  0
ENDSEC
  0
SECTION
  2
BLOCKS
  0
BLOCK
  5
20
330
1F
100
AcDbEntity
  8
0
100
AcDbBlockBegin
  2
*Model_Space
 70
     0
 10
0.0
 20
0.0
 30
0.0
  3
*Model_Space
  1

  0
ENDBLK
  5
21
330
1F
100
AcDbEntity
  8
0
100
AcDbBlockEnd
  0
BLOCK
  5
1C
330
1B
100
AcDbEntity
 67
     1
  8
0
100
AcDbBlockBegin
  2
*Paper_Space
 70
     0
 10
0.0
 20
0.0
 30
0.0
  3
*Paper_Space
  1

  0
ENDBLK
  5
1D
330
1B
100
AcDbEntity
 67
     1
  8
0
100
AcDbBlockEnd
  0
BLOCK
  5
24
330
23
100
AcDbEntity
  8
0
100
AcDbBlockBegin
  2
*Paper_Space0
 70
     0
 10
0.0
 20
0.0
 30
0.0
  3
*Paper_Space0
  1

  0
ENDBLK
  5
25
330
23
100
AcDbEntity
  8
0
100
AcDbBlockEnd
  0
BLOCK
  5
43
330
41
100
AcDbEntity
  8
0
100
AcDbBlockBegin
  2
block 2
 70
     0
 10
0.0
 20
0.0
 30
0.0
  3
block 2
  1

  0
INSERT
  5
46
330
41
100
AcDbEntity
  8
_U+30EC_U+30A4_U+30E4_U+30FC 1
100
AcDbBlockReference
  2
block 3
 10
0.0
 20
0.0
 30
0.0
  0
INSERT
  5
4E
330
41
100
AcDbEntity
  8
_U+30EC_U+30A4_U+30E4_U+30FC 1
100
AcDbBlockReference
  2
block 4
 10
0.0
 20
0.0
 30
0.0
  0
INSERT
  5
56
330
41
100
AcDbEntity
  8
_U+30EC_U+30A4_U+30E4_U+30FC 1
100
AcDbBlockReference
  2
block 5
 10
0.0
 20
0.0
 30
0.0
  0
INSERT
  5
95
330
41
100
AcDbEntity
  8
_U+30EC_U+30A4_U+30E4_U+30FC 1
100
AcDbBlockReference
  2
block 6
 10
0.0
 20
0.0
 30
0.0
  0
INSERT
  5
A6
330
41
100
AcDbEntity
  8
_U+30EC_U+30A4_U+30E4_U+30FC 1
100
AcDbBlockReference
  2
block 7
 10
0.0
 20
0.0
 30
0.0
  0
INSERT
  5
B8
330
41
100
AcDbEntity
  8
_U+30EC_U+30A4_U+30E4_U+30FC 1
100
AcDbBlockReference
  2
block 8
 10
0.0
 20
0.0
 30
0.0
  0
INSERT
  5
C0
330
41
100
AcDbEntity
  8
_U+30EC_U+30A4_U+30E4_U+30FC 1
100
AcDbBlockReference
  2
block 9
 10
0.0
 20
0.0
 30
0.0
  0
INSERT
  5
C8
330
41
100
AcDbEntity
  8
_U+30EC_U+30A4_U+30E4_U+30FC 1
100
AcDbBlockReference
  2
block 10
 10
0.0
 20
0.0
 30
0.0
  0
INSERT
  5
D0
330
41
100
AcDbEntity
  8
_U+30EC_U+30A4_U+30E4_U+30FC 1
100
AcDbBlockReference
  2
block 11
 10
0.0
 20
0.0
 30
0.0
  0
INSERT
  5
DF
330
41
100
AcDbEntity
  8
_U+30EC_U+30A4_U+30E4_U+30FC 1
100
AcDbBlockReference
  2
block 12
 10
0.0
 20
0.0
 30
0.0
  0
INSERT
  5
E4
330
41
100
AcDbEntity
  8
_U+30EC_U+30A4_U+30E4_U+30FC 1
100
AcDbBlockReference
  2
block 13
 10
0.0
 20
0.0
 30
0.0
  0
INSERT
  5
E9
330
41
100
AcDbEntity
  8
_U+30EC_U+30A4_U+30E4_U+30FC 1
100
AcDbBlockReference
  2
block 14
 10
0.0
 20
0.0
 30
0.0
  0
INSERT
  5
F1
330
41
100
AcDbEntity
  8
_U+30EC_U+30A4_U+30E4_U+30FC 1
100
AcDbBlockReference
  2
block 15
 10
0.0
 20
0.0
 30
0.0
  0
INSERT
  5
F9
330
41
100
AcDbEntity
  8
_U+30EC_U+30A4_U+30E4_U+30FC 1
100
AcDbBlockReference
  2
block 16
 10
0.0
 20
0.0
 30
0.0
  0
INSERT
  5
118
330
41
100
AcDbEntity
  8
_U+30EC_U+30A4_U+30E4_U+30FC 1
100
AcDbBlockReference
  2
block 17
 10
0.0
 20
0.0
 30
0.0
  0
INSERT
  5
136
330
41
100
AcDbEntity
  8
_U+30EC_U+30A4_U+30E4_U+30FC 1
100
AcDbBlockReference
  2
block 18
 10
0.0
 20
0.0
 30
0.0
  0
INSERT
  5
13E
330
41
100
AcDbEntity
  8
_U+30EC_U+30A4_U+30E4_U+30FC 1
100
AcDbBlockReference
  2
block 19
 10
0.0
 20
0.0
 30
0.0
  0
INSERT
  5
146
330
41
100
AcDbEntity
  8
_U+30EC_U+30A4_U+30E4_U+30FC 1
100
AcDbBlockReference
  2
block 20
 10
0.0
 20
0.0
 30
0.0
  0
INSERT
  5
14B
330
41
100
AcDbEntity
  8
_U+30EC_U+30A4_U+30E4_U+30FC 1
100
AcDbBlockReference
  2
block 21
 10
0.0
 20
0.0
 30
0.0
  0
INSERT
  5
150
330
41
100
AcDbEntity
  8
_U+30EC_U+30A4_U+30E4_U+30FC 1
100
AcDbBlockReference
  2
block 22
 10
0.0
 20
0.0
 30
0.0
  0
INSERT
  5
155
330
41
100
AcDbEntity
  8
_U+30EC_U+30A4_U+30E4_U+30FC 1
100
AcDbBlockReference
  2
block 23
 10
0.0
 20
0.0
 30
0.0
  0
INSERT
  5
15A
330
41
100
AcDbEntity
  8
_U+30EC_U+30A4_U+30E4_U+30FC 1
100
AcDbBlockReference
  2
block 24
 10
0.0
 20
0.0
 30
0.0
  0
INSERT
  5
169
330
41
100
AcDbEntity
  8
_U+30EC_U+30A4_U+30E4_U+30FC 1
100
AcDbBlockReference
  2
block 25
 10
0.0
 20
0.0
 30
0.0
  0
INSERT
  5
1BB
330
41
100
AcDbEntity
  8
_U+30EC_U+30A4_U+30E4_U+30FC 1
100
AcDbBlockReference
  2
block 26
 10
0.0
 20
0.0
 30
0.0
  0
INSERT
  5
1C7
330
41
100
AcDbEntity
  8
_U+30EC_U+30A4_U+30E4_U+30FC 1
100
AcDbBlockReference
  2
block 27
 10
0.0
 20
0.0
 30
0.0
  0
INSERT
  5
1CC
330
41
100
AcDbEntity
  8
_U+30EC_U+30A4_U+30E4_U+30FC 1
100
AcDbBlockReference
  2
block 28
 10
0.0
 20
0.0
 30
0.0
  0
INSERT
  5
21F
330
41
100
AcDbEntity
  8
_U+30EC_U+30A4_U+30E4_U+30FC 1
100
AcDbBlockReference
  2
block 29
 10
0.0
 20
0.0
 30
0.0
  0
INSERT
  5
227
330
41
100
AcDbEntity
  8
_U+30EC_U+30A4_U+30E4_U+30FC 1
100
AcDbBlockReference
  2
block 30
 10
0.0
 20
0.0
 30
0.0
  0
INSERT
  5
22F
330
41
100
AcDbEntity
  8
_U+30EC_U+30A4_U+30E4_U+30FC 1
100
AcDbBlockReference
  2
block 31
 10
0.0
 20
0.0
 30
0.0
  0
INSERT
  5
237
330
41
100
AcDbEntity
  8
_U+30EC_U+30A4_U+30E4_U+30FC 1
100
AcDbBlockReference
  2
block 32
 10
0.0
 20
0.0
 30
0.0
  0
INSERT
  5
264
330
41
100
AcDbEntity
  8
_U+30EC_U+30A4_U+30E4_U+30FC 1
100
AcDbBlockReference
  2
block 33
 10
0.0
 20
0.0
 30
0.0
  0
INSERT
  5
269
330
41
100
AcDbEntity
  8
_U+30EC_U+30A4_U+30E4_U+30FC 1
100
AcDbBlockReference
  2
block 34
 10
0.0
 20
0.0
 30
0.0
  0
INSERT
  5
26E
330
41
100
AcDbEntity
  8
_U+30EC_U+30A4_U+30E4_U+30FC 1
100
AcDbBlockReference
  2
block 35
 10
0.0
 20
0.0
 30
0.0
  0
INSERT
  5
2B0
330
41
100
AcDbEntity
  8
_U+30EC_U+30A4_U+30E4_U+30FC 1
100
AcDbBlockReference
  2
block 36
 10
0.0
 20
0.0
 30
0.0
  0
ENDBLK
  5
44
330
41
100
AcDbEntity
  8
0
100
AcDbBlockEnd
  0
BLOCK
  5
47
330
45
100
AcDbEntity
  8
0
100
AcDbBlockBegin
  2
block 3
 70
     0
 10
0.0
 20
0.0
 30
0.0
  3
block 3
  1

  0
POLYLINE
  5
49
330
45
100
AcDbEntity
  8
_U+30EC_U+30A4_U+30E4_U+30FC 1
 62
     7
370
    25
100
AcDb2dPolyline
 66
     1
 10
0.0
 20
0.0
 30
0.0
  0
VERTEX
  5
4A
330
49
100
AcDbEntity
  8
_U+30EC_U+30A4_U+30E4_U+30FC 1
 62
     7
370
    25
100
AcDbVertex
100
AcDb2dVertex
 10
76.40051395048515
 20
-148.3794995268434
 30
0.0
  0
VERTEX
  5
4B
330
49
100
AcDbEntity
  8
_U+30EC_U+30A4_U+30E4_U+30FC 1
 62
     7
370
    25
100
AcDbVertex
100
AcDb2dVertex
 10
76.95951909173435
 20
-150.389446743693
 30
0.0
  0
SEQEND
  5
4C
330
49
100
AcDbEntity
  8
_U+30EC_U+30A4_U+30E4_U+30FC 1
 62
     7
370
    25
  0
ENDBLK
  5
48
330
45
100
AcDbEntity
  8
0
100
AcDbBlockEnd
  0
BLOCK
  5
4F
330
4D
100
AcDbEntity
  8
0
100
AcDbBlockBegin
  2
block 4
 70
     0
 10
0.0
 20
0.0
 30
0.0
  3
block 4
  1

  0
POLYLINE
  5
51
330
4D
100
AcDbEntity
  8
_U+30EC_U+30A4_U+30E4_U+30FC 1
 62
     7
370
    25
100
AcDb2dPolyline
 66
     1
 10
0.0
 20
0.0
 30
0.0
  0
VERTEX
  5
52
330
51
100
AcDbEntity
  8
_U+30EC_U+30A4_U+30E4_U+30FC 1
 62
     7
370
    25
100
AcDbVertex
100
AcDb2dVertex
 10
131.6935882007352
 20
-150.389446743693
 30
0.0
  0
VERTEX
  5
53
330
51
100
AcDbEntity
  8
_U+30EC_U+30A4_U+30E4_U+30FC 1
 62
     7
370
    25
100
AcDbVertex
100
AcDb2dVertex
 10
132.2525933419857
 20
-148.3794995268434
 30
0.0
  0
SEQEND
  5
54
330
51
100
AcDbEntity
  8
_U+30EC_U+30A4_U+30E4_U+30FC 1
 62
     7
370
    25
  0
ENDBLK
  5
50
330
4D
100
AcDbEntity
  8
0
100
AcDbBlockEnd
  0
BLOCK
  5
57
330
55
100
AcDbEntity
  8
0
100
AcDbBlockBegin
  2
block 5
 70
     0
 10
0.0
 20
0.0
 30
0.0
  3
block 5
  1

  0
POLYLINE
  5
59
330
55
100
AcDbEntity
  8
_U+30EC_U+30A4_U+30E4_U+30FC 1
 62
     7
370
    25
100
AcDb2dPolyline
 66
     1
 10
0.0
 20
0.0
 30
0.0
  0
VERTEX
  5
5A
330
59
100
AcDbEntity
  8
_U+30EC_U+30A4_U+30E4_U+30FC 1
 62
     7
370
    25
100
AcDbVertex
100
AcDb2dVertex
 10
79.42349315038516
 20
-153.2586706876931
 30
0.0
  0
VERTEX
  5
5B
330
59
100
AcDbEntity
  8
_U+30EC_U+30A4_U+30E4_U+30FC 1
 62
     7
370
    25
100
AcDbVertex
100
AcDb2dVertex
 10
79.84332293618439
 20
-153.5231320635931
 30
0.0
  0
VERTEX
  5
5C
330
59
100
AcDbEntity
  8
_U+30EC_U+30A4_U+30E4_U+30FC 1
 62
     7
370
    25
100
AcDbVertex
100
AcDb2dVertex
 10
80.51521033398423
 20
-153.917733973093
 30
0.0
  0
VERTEX
  5
5D
330
59
100
AcDbEntity
  8
_U+30EC_U+30A4_U+30E4_U+30FC 1
 62
     7
370
    25
100
AcDbVertex
100
AcDb2dVertex
 10
81.20978921998457
 20
-154.297590855193
 30
0.0
  0
VERTEX
  5
5E
330
59
100
AcDbEntity
  8
_U+30EC_U+30A4_U+30E4_U+30FC 1
 62
     7
370
    25
100
AcDbVertex
100
AcDb2dVertex
 10
81.93052411428432
 20
-154.6640242110431
 30
0.0
  0
VERTEX
  5
5F
330
59
100
AcDbEntity
  8
_U+30EC_U+30A4_U+30E4_U+30FC 1
 62
     7
370
    25
100
AcDbVertex
100
AcDb2dVertex
 10
82.68186301343403
 20
-155.0183945321932
 30
0.0
  0
VERTEX
  5
60
330
59
100
AcDbEntity
  8
_U+30EC_U+30A4_U+30E4_U+30FC 1
 62
     7
370
    25
100
AcDbVertex
100
AcDb2dVertex
 10
83.46921950928416
 20
-155.3619801608934
 30
0.0
  0
VERTEX
  5
61
330
59
100
AcDbEntity
  8
_U+30EC_U+30A4_U+30E4_U+30FC 1
 62
     7
370
    25
100
AcDbVertex
100
AcDb2dVertex
 10
84.29863453258461
 20
-155.6957535345932
 30
0.0
  0
VERTEX
  5
62
330
59
100
AcDbEntity
  8
_U+30EC_U+30A4_U+30E4_U+30FC 1
 62
     7
370
    25
100
AcDbVertex
100
AcDb2dVertex
 10
85.1757690345351
 20
-156.0199923513432
 30
0.0
  0
VERTEX
  5
63
330
59
100
AcDbEntity
  8
_U+30EC_U+30A4_U+30E4_U+30FC 1
 62
     7
370
    25
100
AcDbVertex
100
AcDb2dVertex
 10
86.10361963858443
 20
-156.3336639060929
 30
0.0
  0
VERTEX
  5
64
330
59
100
AcDbEntity
  8
_U+30EC_U+30A4_U+30E4_U+30FC 1
 62
     7
370
    25
100
AcDbVertex
100
AcDb2dVertex
 10
87.07882911313499
 20
-156.6338000511932
 30
0.0
  0
VERTEX
  5
65
330
59
100
AcDbEntity
  8
_U+30EC_U+30A4_U+30E4_U+30FC 1
 62
     7
370
    25
100
AcDbVertex
100
AcDb2dVertex
 10
88.08864355438487
 20
-156.9155926443931
 30
0.0
  0
VERTEX
  5
66
330
59
100
AcDbEntity
  8
_U+30EC_U+30A4_U+30E4_U+30FC 1
 62
     7
370
    25
100
AcDbVertex
100
AcDb2dVertex
 10
89.1077786718851
 20
-157.1727821544933
 30
0.0
  0
VERTEX
  5
67
330
59
100
AcDbEntity
  8
_U+30EC_U+30A4_U+30E4_U+30FC 1
 62
     7
370
    25
100
AcDbVertex
100
AcDb2dVertex
 10
90.11886716238523
 20
-157.4032878409931
 30
0.0
  0
VERTEX
  5
68
330
59
100
AcDbEntity
  8
_U+30EC_U+30A4_U+30E4_U+30FC 1
 62
     7
370
    25
100
AcDbVertex
100
AcDb2dVertex
 10
91.11450463883452
 20
-157.6082425129432
 30
0.0
  0
VERTEX
  5
69
330
59
100
AcDbEntity
  8
_U+30EC_U+30A4_U+30E4_U+30FC 1
 62
     7
370
    25
100
AcDbVertex
100
AcDb2dVertex
 10
92.09356382838409
 20
-157.7900827742932
 30
0.0
  0
VERTEX
  5
6A
330
59
100
AcDbEntity
  8
_U+30EC_U+30A4_U+30E4_U+30FC 1
 62
     7
370
    25
100
AcDbVertex
100
AcDb2dVertex
 10
93.05787831893409
 20
-157.9514125570434
 30
0.0
  0
VERTEX
  5
6B
330
59
100
AcDbEntity
  8
_U+30EC_U+30A4_U+30E4_U+30FC 1
 62
     7
370
    25
100
AcDbVertex
100
AcDb2dVertex
 10
94.01014447563486
 20
-158.094511862193
 30
0.0
  0
VERTEX
  5
6C
330
59
100
AcDbEntity
  8
_U+30EC_U+30A4_U+30E4_U+30FC 1
 62
     7
370
    25
100
AcDbVertex
100
AcDb2dVertex
 10
94.95299980393482
 20
-158.2212291392428
 30
0.0
  0
VERTEX
  5
6D
330
59
100
AcDbEntity
  8
_U+30EC_U+30A4_U+30E4_U+30FC 1
 62
     7
370
    25
100
AcDbVertex
100
AcDb2dVertex
 10
95.88870331993448
 20
-158.3330185113932
 30
0.0
  0
VERTEX
  5
6E
330
59
100
AcDbEntity
  8
_U+30EC_U+30A4_U+30E4_U+30FC 1
 62
     7
370
    25
100
AcDbVertex
100
AcDb2dVertex
 10
96.8190789257851
 20
-158.4310112261432
 30
0.0
  0
VERTEX
  5
6F
330
59
100
AcDbEntity
  8
_U+30EC_U+30A4_U+30E4_U+30FC 1
 62
     7
370
    25
100
AcDbVertex
100
AcDb2dVertex
 10
97.74554744713451
 20
-158.5160840791434
 30
0.0
  0
VERTEX
  5
70
330
59
100
AcDbEntity
  8
_U+30EC_U+30A4_U+30E4_U+30FC 1
 62
     7
370
    25
100
AcDbVertex
100
AcDb2dVertex
 10
98.66918847313461
 20
-158.5889157829933
 30
0.0
  0
VERTEX
  5
71
330
59
100
AcDbEntity
  8
_U+30EC_U+30A4_U+30E4_U+30FC 1
 62
     7
370
    25
100
AcDbVertex
100
AcDb2dVertex
 10
99.59080145113501
 20
-158.6500314116435
 30
0.0
  0
VERTEX
  5
72
330
59
100
AcDbEntity
  8
_U+30EC_U+30A4_U+30E4_U+30FC 1
 62
     7
370
    25
100
AcDbVertex
100
AcDb2dVertex
 10
100.5109634285349
 20
-158.699834634243
 30
0.0
  0
VERTEX
  5
73
330
59
100
AcDbEntity
  8
_U+30EC_U+30A4_U+30E4_U+30FC 1
 62
     7
370
    25
100
AcDbVertex
100
AcDb2dVertex
 10
101.430075432885
 20
-158.738630541493
 30
0.0
  0
VERTEX
  5
74
330
59
100
AcDbEntity
  8
_U+30EC_U+30A4_U+30E4_U+30FC 1
 62
     7
370
    25
100
AcDbVertex
100
AcDb2dVertex
 10
102.3484043811852
 20
-158.7666465955934
 30
0.0
  0
VERTEX
  5
75
330
59
100
AcDbEntity
  8
_U+30EC_U+30A4_U+30E4_U+30FC 1
 62
     7
370
    25
100
AcDbVertex
100
AcDb2dVertex
 10
103.2661174458842
 20
-158.7840403676419
 30
0.0
  0
VERTEX
  5
76
330
59
100
AcDbEntity
  8
_U+30EC_U+30A4_U+30E4_U+30FC 1
 62
     7
370
    25
100
AcDbVertex
100
AcDb2dVertex
 10
104.1833129862847
 20
-158.790915012343
 30
0.0
  0
VERTEX
  5
77
330
59
100
AcDbEntity
  8
_U+30EC_U+30A4_U+30E4_U+30FC 1
 62
     7
370
    25
100
AcDbVertex
100
AcDb2dVertex
 10
105.1000481506349
 20
-158.7873178287432
 30
0.0
  0
VERTEX
  5
78
330
59
100
AcDbEntity
  8
_U+30EC_U+30A4_U+30E4_U+30FC 1
 62
     7
370
    25
100
AcDbVertex
100
AcDb2dVertex
 10
106.0162359883354
 20
-158.7732513651929
 30
0.0
  0
VERTEX
  5
79
330
59
100
AcDbEntity
  8
_U+30EC_U+30A4_U+30E4_U+30FC 1
 62
     7
370
    25
100
AcDbVertex
100
AcDb2dVertex
 10
106.9316796993356
 20
-158.7486751688429
 30
0.0
  0
VERTEX
  5
7A
330
59
100
AcDbEntity
  8
_U+30EC_U+30A4_U+30E4_U+30FC 1
 62
     7
370
    25
100
AcDbVertex
100
AcDb2dVertex
 10
107.8464571421353
 20
-158.7134999488427
 30
0.0
  0
VERTEX
  5
7B
330
59
100
AcDbEntity
  8
_U+30EC_U+30A4_U+30E4_U+30FC 1
 62
     7
370
    25
100
AcDbVertex
100
AcDb2dVertex
 10
108.7607003783352
 20
-158.667577731643
 30
0.0
  0
VERTEX
  5
7C
330
59
100
AcDbEntity
  8
_U+30EC_U+30A4_U+30E4_U+30FC 1
 62
     7
370
    25
100
AcDbVertex
100
AcDb2dVertex
 10
109.6746210043845
 20
-158.6106977735935
 30
0.0
  0
VERTEX
  5
7D
330
59
100
AcDbEntity
  8
_U+30EC_U+30A4_U+30E4_U+30FC 1
 62
     7
370
    25
100
AcDbVertex
100
AcDb2dVertex
 10
110.5885453557354
 20
-158.5425712928435
 30
0.0
  0
VERTEX
  5
7E
330
59
100
AcDbEntity
  8
_U+30EC_U+30A4_U+30E4_U+30FC 1
 62
     7
370
    25
100
AcDbVertex
100
AcDb2dVertex
 10
111.5029469167351
 20
-158.4628214696432
 30
0.0
  0
VERTEX
  5
7F
330
59
100
AcDbEntity
  8
_U+30EC_U+30A4_U+30E4_U+30FC 1
 62
     7
370
    25
100
AcDbVertex
100
AcDb2dVertex
 10
112.4184906517351
 20
-158.3709538087931
 30
0.0
  0
VERTEX
  5
80
330
59
100
AcDbEntity
  8
_U+30EC_U+30A4_U+30E4_U+30FC 1
 62
     7
370
    25
100
AcDbVertex
100
AcDb2dVertex
 10
113.3360825513848
 20
-158.266335782143
 30
0.0
  0
VERTEX
  5
81
330
59
100
AcDbEntity
  8
_U+30EC_U+30A4_U+30E4_U+30FC 1
 62
     7
370
    25
100
AcDbVertex
100
AcDb2dVertex
 10
114.2569288646351
 20
-158.1481481180935
 30
0.0
  0
VERTEX
  5
82
330
59
100
AcDbEntity
  8
_U+30EC_U+30A4_U+30E4_U+30FC 1
 62
     7
370
    25
100
AcDbVertex
100
AcDb2dVertex
 10
115.1826076244351
 20
-158.0153386112934
 30
0.0
  0
VERTEX
  5
83
330
59
100
AcDbEntity
  8
_U+30EC_U+30A4_U+30E4_U+30FC 1
 62
     7
370
    25
100
AcDbVertex
100
AcDb2dVertex
 10
116.1151438986353
 20
-157.866549611493
 30
0.0
  0
VERTEX
  5
84
330
59
100
AcDbEntity
  8
_U+30EC_U+30A4_U+30E4_U+30FC 1
 62
     7
370
    25
100
AcDbVertex
100
AcDb2dVertex
 10
117.0570895110854
 20
-157.700025003243
 30
0.0
  0
VERTEX
  5
85
330
59
100
AcDbEntity
  8
_U+30EC_U+30A4_U+30E4_U+30FC 1
 62
     7
370
    25
100
AcDbVertex
100
AcDb2dVertex
 10
118.0115610395847
 20
-157.5134965733434
 30
0.0
  0
VERTEX
  5
86
330
59
100
AcDbEntity
  8
_U+30EC_U+30A4_U+30E4_U+30FC 1
 62
     7
370
    25
100
AcDbVertex
100
AcDb2dVertex
 10
118.9821645652348
 20
-157.304063654543
 30
0.0
  0
VERTEX
  5
87
330
59
100
AcDbEntity
  8
_U+30EC_U+30A4_U+30E4_U+30FC 1
 62
     7
370
    25
100
AcDbVertex
100
AcDb2dVertex
 10
119.9726060067851
 20
-157.0681200826433
 30
0.0
  0
VERTEX
  5
88
330
59
100
AcDbEntity
  8
_U+30EC_U+30A4_U+30E4_U+30FC 1
 62
     7
370
    25
100
AcDbVertex
100
AcDb2dVertex
 10
120.9855511819346
 20
-156.8014952817933
 30
0.0
  0
VERTEX
  5
89
330
59
100
AcDbEntity
  8
_U+30EC_U+30A4_U+30E4_U+30FC 1
 62
     7
370
    25
100
AcDbVertex
100
AcDb2dVertex
 10
122.0200777088853
 20
-156.5001747816934
 30
0.0
  0
VERTEX
  5
8A
330
59
100
AcDbEntity
  8
_U+30EC_U+30A4_U+30E4_U+30FC 1
 62
     7
370
    25
100
AcDbVertex
100
AcDb2dVertex
 10
123.0674505268853
 20
-156.1621125418934
 30
0.0
  0
VERTEX
  5
8B
330
59
100
AcDbEntity
  8
_U+30EC_U+30A4_U+30E4_U+30FC 1
 62
     7
370
    25
100
AcDbVertex
100
AcDb2dVertex
 10
123.9806696807346
 20
-155.837391234343
 30
0.0
  0
VERTEX
  5
8C
330
59
100
AcDbEntity
  8
_U+30EC_U+30A4_U+30E4_U+30FC 1
 62
     7
370
    25
100
AcDbVertex
100
AcDb2dVertex
 10
124.8464882408856
 20
-155.501102053143
 30
0.0
  0
VERTEX
  5
8D
330
59
100
AcDbEntity
  8
_U+30EC_U+30A4_U+30E4_U+30FC 1
 62
     7
370
    25
100
AcDbVertex
100
AcDb2dVertex
 10
125.6658107077356
 20
-155.1549217481931
 30
0.0
  0
VERTEX
  5
8E
330
59
100
AcDbEntity
  8
_U+30EC_U+30A4_U+30E4_U+30FC 1
 62
     7
370
    25
100
AcDbVertex
100
AcDb2dVertex
 10
126.4435455237856
 20
-154.7987989661929
 30
0.0
  0
VERTEX
  5
8F
330
59
100
AcDbEntity
  8
_U+30EC_U+30A4_U+30E4_U+30FC 1
 62
     7
370
    25
100
AcDbVertex
100
AcDb2dVertex
 10
127.1854296361354
 20
-154.431828186893
 30
0.0
  0
VERTEX
  5
90
330
59
100
AcDbEntity
  8
_U+30EC_U+30A4_U+30E4_U+30FC 1
 62
     7
370
    25
100
AcDbVertex
100
AcDb2dVertex
 10
127.8966888820353
 20
-154.052761512843
 30
0.0
  0
VERTEX
  5
91
330
59
100
AcDbEntity
  8
_U+30EC_U+30A4_U+30E4_U+30FC 1
 62
     7
370
    25
100
AcDbVertex
100
AcDb2dVertex
 10
128.5816237365348
 20
-153.660269197043
 30
0.0
  0
VERTEX
  5
92
330
59
100
AcDbEntity
  8
_U+30EC_U+30A4_U+30E4_U+30FC 1
 62
     7
370
    25
100
AcDbVertex
100
AcDb2dVertex
 10
129.2367950116851
 20
-153.2572402677431
 30
0.0
  0
SEQEND
  5
93
330
59
100
AcDbEntity
  8
_U+30EC_U+30A4_U+30E4_U+30FC 1
 62
     7
370
    25
  0
ENDBLK
  5
58
330
55
100
AcDbEntity
  8
0
100
AcDbBlockEnd
  0
BLOCK
  5
96
330
94
100
AcDbEntity
  8
0
100
AcDbBlockBegin
  2
block 6
 70
     0
 10
0.0
 20
0.0
 30
0.0
  3
block 6
  1

  0
POLYLINE
  5
98
330
94
100
AcDbEntity
  8
_U+30EC_U+30A4_U+30E4_U+30FC 1
 62
     7
370
    25
100
AcDb2dPolyline
 66
     1
 10
0.0
 20
0.0
 30
0.0
  0
VERTEX
  5
99
330
98
100
AcDbEntity
  8
_U+30EC_U+30A4_U+30E4_U+30FC 1
 62
     7
370
    25
100
AcDbVertex
100
AcDb2dVertex
 10
129.2219981585846
 20
-153.2633538513932
 30
0.0
  0
VERTEX
  5
9A
330
98
100
AcDbEntity
  8
_U+30EC_U+30A4_U+30E4_U+30FC 1
 62
     7
370
    25
100
AcDbVertex
100
AcDb2dVertex
 10
129.4277712737846
 20
-153.1329655001433
 30
0.0
  0
VERTEX
  5
9B
330
98
100
AcDbEntity
  8
_U+30EC_U+30A4_U+30E4_U+30FC 1
 62
     7
370
    25
100
AcDbVertex
100
AcDb2dVertex
 10
129.8159047996352
 20
-152.8588979895927
 30
0.0
  0
VERTEX
  5
9C
330
98
100
AcDbEntity
  8
_U+30EC_U+30A4_U+30E4_U+30FC 1
 62
     7
370
    25
100
AcDbVertex
100
AcDb2dVertex
 10
130.1755175029357
 20
-152.573179068943
 30
0.0
  0
VERTEX
  5
9D
330
98
100
AcDbEntity
  8
_U+30EC_U+30A4_U+30E4_U+30FC 1
 62
     7
370
    25
100
AcDbVertex
100
AcDb2dVertex
 10
130.5038139258853
 20
-152.2762904487931
 30
0.0
  0
VERTEX
  5
9E
330
98
100
AcDbEntity
  8
_U+30EC_U+30A4_U+30E4_U+30FC 1
 62
     7
370
    25
100
AcDbVertex
100
AcDb2dVertex
 10
130.7978019153352
 20
-151.9695600525934
 30
0.0
  0
VERTEX
  5
9F
330
98
100
AcDbEntity
  8
_U+30EC_U+30A4_U+30E4_U+30FC 1
 62
     7
370
    25
100
AcDbVertex
100
AcDb2dVertex
 10
131.0547307168347
 20
-151.6552976933932
 30
0.0
  0
VERTEX
  5
A0
330
98
100
AcDbEntity
  8
_U+30EC_U+30A4_U+30E4_U+30FC 1
 62
     7
370
    25
100
AcDbVertex
100
AcDb2dVertex
 10
131.2729463016358
 20
-151.3362292146432
 30
0.0
  0
VERTEX
  5
A1
330
98
100
AcDbEntity
  8
_U+30EC_U+30A4_U+30E4_U+30FC 1
 62
     7
370
    25
100
AcDbVertex
100
AcDb2dVertex
 10
131.4522877370354
 20
-151.0147290008935
 30
0.0
  0
VERTEX
  5
A2
330
98
100
AcDbEntity
  8
_U+30EC_U+30A4_U+30E4_U+30FC 1
 62
     7
370
    25
100
AcDbVertex
100
AcDb2dVertex
 10
131.5937474404845
 20
-150.6924333700929
 30
0.0
  0
VERTEX
  5
A3
330
98
100
AcDbEntity
  8
_U+30EC_U+30A4_U+30E4_U+30FC 1
 62
     7
370
    25
100
AcDbVertex
100
AcDb2dVertex
 10
131.6924497519853
 20
-150.389934580343
 30
0.0
  0
SEQEND
  5
A4
330
98
100
AcDbEntity
  8
_U+30EC_U+30A4_U+30E4_U+30FC 1
 62
     7
370
    25
  0
ENDBLK
  5
97
330
94
100
AcDbEntity
  8
0
100
AcDbBlockEnd
  0
BLOCK
  5
A7
330
A5
100
AcDbEntity
  8
0
100
AcDbBlockBegin
  2
block 7
 70
     0
 10
0.0
 20
0.0
 30
0.0
  3
block 7
  1

  0
POLYLINE
  5
A9
330
A5
100
AcDbEntity
  8
_U+30EC_U+30A4_U+30E4_U+30FC 1
 62
     7
370
    25
100
AcDb2dPolyline
 66
     1
 10
0.0
 20
0.0
 30
0.0
  0
VERTEX
  5
AA
330
A9
100
AcDbEntity
  8
_U+30EC_U+30A4_U+30E4_U+30FC 1
 62
     7
370
    25
100
AcDbVertex
100
AcDb2dVertex
 10
76.96268707863493
 20
-150.3909083306932
 30
0.0
  0
VERTEX
  5
AB
330
A9
100
AcDbEntity
  8
_U+30EC_U+30A4_U+30E4_U+30FC 1
 62
     7
370
    25
100
AcDbVertex
100
AcDb2dVertex
 10
77.0341381465345
 20
-150.624231613793
 30
0.0
  0
VERTEX
  5
AC
330
A9
100
AcDbEntity
  8
_U+30EC_U+30A4_U+30E4_U+30FC 1
 62
     7
370
    25
100
AcDbVertex
100
AcDb2dVertex
 10
77.15683430783416
 20
-150.9231814792433
 30
0.0
  0
VERTEX
  5
AD
330
A9
100
AcDbEntity
  8
_U+30EC_U+30A4_U+30E4_U+30FC 1
 62
     7
370
    25
100
AcDbVertex
100
AcDb2dVertex
 10
77.309687439135
 20
-151.218113158093
 30
0.0
  0
VERTEX
  5
AE
330
A9
100
AcDbEntity
  8
_U+30EC_U+30A4_U+30E4_U+30FC 1
 62
     7
370
    25
100
AcDbVertex
100
AcDb2dVertex
 10
77.49370485893412
 20
-151.5097788827931
 30
0.0
  0
VERTEX
  5
AF
330
A9
100
AcDbEntity
  8
_U+30EC_U+30A4_U+30E4_U+30FC 1
 62
     7
370
    25
100
AcDbVertex
100
AcDb2dVertex
 10
77.71040946593442
 20
-151.7988790644427
 30
0.0
  0
VERTEX
  5
B0
330
A9
100
AcDbEntity
  8
_U+30EC_U+30A4_U+30E4_U+30FC 1
 62
     7
370
    25
100
AcDbVertex
100
AcDb2dVertex
 10
77.96147913088426
 20
-152.0857553351434
 30
0.0
  0
VERTEX
  5
B1
330
A9
100
AcDbEntity
  8
_U+30EC_U+30A4_U+30E4_U+30FC 1
 62
     7
370
    25
100
AcDbVertex
100
AcDb2dVertex
 10
78.2482251559848
 20
-152.3700987646931
 30
0.0
  0
VERTEX
  5
B2
330
A9
100
AcDbEntity
  8
_U+30EC_U+30A4_U+30E4_U+30FC 1
 62
     7
370
    25
100
AcDbVertex
100
AcDb2dVertex
 10
78.57095748533469
 20
-152.6508317831935
 30
0.0
  0
VERTEX
  5
B3
330
A9
100
AcDbEntity
  8
_U+30EC_U+30A4_U+30E4_U+30FC 1
 62
     7
370
    25
100
AcDbVertex
100
AcDb2dVertex
 10
78.92865687958479
 20
-152.9263281639433
 30
0.0
  0
VERTEX
  5
B4
330
A9
100
AcDbEntity
  8
_U+30EC_U+30A4_U+30E4_U+30FC 1
 62
     7
370
    25
100
AcDbVertex
100
AcDb2dVertex
 10
79.31923121563483
 20
-153.1949091751432
 30
0.0
  0
VERTEX
  5
B5
330
A9
100
AcDbEntity
  8
_U+30EC_U+30A4_U+30E4_U+30FC 1
 62
     7
370
    25
100
AcDbVertex
100
AcDb2dVertex
 10
79.49056625713442
 20
-153.3009060073434
 30
0.0
  0
SEQEND
  5
B6
330
A9
100
AcDbEntity
  8
_U+30EC_U+30A4_U+30E4_U+30FC 1
 62
     7
370
    25
  0
ENDBLK
  5
A8
330
A5
100
AcDbEntity
  8
0
100
AcDbBlockEnd
  0
BLOCK
  5
B9
330
B7
100
AcDbEntity
  8
0
100
AcDbBlockBegin
  2
block 8
 70
     0
 10
0.0
 20
0.0
 30
0.0
  3
block 8
  1

  0
POLYLINE
  5
BB
330
B7
100
AcDbEntity
  8
_U+30EC_U+30A4_U+30E4_U+30FC 1
 62
     7
370
    25
100
AcDb2dPolyline
 66
     1
 10
0.0
 20
0.0
 30
0.0
  0
VERTEX
  5
BC
330
BB
100
AcDbEntity
  8
_U+30EC_U+30A4_U+30E4_U+30FC 1
 62
     7
370
    25
100
AcDbVertex
100
AcDb2dVertex
 10
76.32655352703419
 20
-147.8023218315434
 30
0.0
  0
VERTEX
  5
BD
330
BB
100
AcDbEntity
  8
_U+30EC_U+30A4_U+30E4_U+30FC 1
 62
     7
370
    25
100
AcDbVertex
100
AcDb2dVertex
 10
76.32655352703419
 20
-147.8467248015923
 30
0.0
  0
SEQEND
  5
BE
330
BB
100
AcDbEntity
  8
_U+30EC_U+30A4_U+30E4_U+30FC 1
 62
     7
370
    25
  0
ENDBLK
  5
BA
330
B7
100
AcDbEntity
  8
0
100
AcDbBlockEnd
  0
BLOCK
  5
C1
330
BF
100
AcDbEntity
  8
0
100
AcDbBlockBegin
  2
block 9
 70
     0
 10
0.0
 20
0.0
 30
0.0
  3
block 9
  1

  0
POLYLINE
  5
C3
330
BF
100
AcDbEntity
  8
_U+30EC_U+30A4_U+30E4_U+30FC 1
 62
     7
370
    25
100
AcDb2dPolyline
 66
     1
 10
0.0
 20
0.0
 30
0.0
  0
VERTEX
  5
C4
330
C3
100
AcDbEntity
  8
_U+30EC_U+30A4_U+30E4_U+30FC 1
 62
     7
370
    25
100
AcDbVertex
100
AcDb2dVertex
 10
132.3265537654354
 20
-147.8467248015923
 30
0.0
  0
VERTEX
  5
C5
330
C3
100
AcDbEntity
  8
_U+30EC_U+30A4_U+30E4_U+30FC 1
 62
     7
370
    25
100
AcDbVertex
100
AcDb2dVertex
 10
132.3265537654354
 20
-147.8023218315434
 30
0.0
  0
SEQEND
  5
C6
330
C3
100
AcDbEntity
  8
_U+30EC_U+30A4_U+30E4_U+30FC 1
 62
     7
370
    25
  0
ENDBLK
  5
C2
330
BF
100
AcDbEntity
  8
0
100
AcDbBlockEnd
  0
BLOCK
  5
C9
330
C7
100
AcDbEntity
  8
0
100
AcDbBlockBegin
  2
block 10
 70
     0
 10
0.0
 20
0.0
 30
0.0
  3
block 10
  1

  0
POLYLINE
  5
CB
330
C7
100
AcDbEntity
  8
_U+30EC_U+30A4_U+30E4_U+30FC 1
 62
     7
370
    25
100
AcDb2dPolyline
 66
     1
 10
0.0
 20
0.0
 30
0.0
  0
VERTEX
  5
CC
330
CB
100
AcDbEntity
  8
_U+30EC_U+30A4_U+30E4_U+30FC 1
 62
     7
370
    25
100
AcDbVertex
100
AcDb2dVertex
 10
77.45764106863508
 20
-145.7591635239931
 30
0.0
  0
VERTEX
  5
CD
330
CB
100
AcDbEntity
  8
_U+30EC_U+30A4_U+30E4_U+30FC 1
 62
     7
370
    25
100
AcDbVertex
100
AcDb2dVertex
 10
77.30926722638463
 20
-145.8992326318929
 30
0.0
  0
SEQEND
  5
CE
330
CB
100
AcDbEntity
  8
_U+30EC_U+30A4_U+30E4_U+30FC 1
 62
     7
370
    25
  0
ENDBLK
  5
CA
330
C7
100
AcDbEntity
  8
0
100
AcDbBlockEnd
  0
BLOCK
  5
D1
330
CF
100
AcDbEntity
  8
0
100
AcDbBlockBegin
  2
block 11
 70
     0
 10
0.0
 20
0.0
 30
0.0
  3
block 11
  1

  0
POLYLINE
  5
D3
330
CF
100
AcDbEntity
  8
_U+30EC_U+30A4_U+30E4_U+30FC 1
 62
     7
370
    25
100
AcDb2dPolyline
 66
     1
 10
0.0
 20
0.0
 30
0.0
  0
VERTEX
  5
D4
330
D3
100
AcDbEntity
  8
_U+30EC_U+30A4_U+30E4_U+30FC 1
 62
     7
370
    25
100
AcDbVertex
100
AcDb2dVertex
 10
132.3265537654354
 20
-147.8023218315434
 30
0.0
  0
VERTEX
  5
D5
330
D3
100
AcDbEntity
  8
_U+30EC_U+30A4_U+30E4_U+30FC 1
 62
     7
370
    25
100
AcDbVertex
100
AcDb2dVertex
 10
132.3220625554855
 20
-147.670944350293
 30
0.0
  0
VERTEX
  5
D6
330
D3
100
AcDbEntity
  8
_U+30EC_U+30A4_U+30E4_U+30FC 1
 62
     7
370
    25
100
AcDbVertex
100
AcDb2dVertex
 10
132.2894558345358
 20
-147.4248364254432
 30
0.0
  0
VERTEX
  5
D7
330
D3
100
AcDbEntity
  8
_U+30EC_U+30A4_U+30E4_U+30FC 1
 62
     7
370
    25
100
AcDbVertex
100
AcDb2dVertex
 10
132.225380841385
 20
-147.1793869200434
 30
0.0
  0
VERTEX
  5
D8
330
D3
100
AcDbEntity
  8
_U+30EC_U+30A4_U+30E4_U+30FC 1
 62
     7
370
    25
100
AcDbVertex
100
AcDb2dVertex
 10
132.1298584376856
 20
-146.934707073693
 30
0.0
  0
VERTEX
  5
D9
330
D3
100
AcDbEntity
  8
_U+30EC_U+30A4_U+30E4_U+30FC 1
 62
     7
370
    25
100
AcDbVertex
100
AcDb2dVertex
 10
132.002888623385
 20
-146.6909574370429
 30
0.0
  0
VERTEX
  5
DA
330
D3
100
AcDbEntity
  8
_U+30EC_U+30A4_U+30E4_U+30FC 1
 62
     7
370
    25
100
AcDbVertex
100
AcDb2dVertex
 10
131.8444952403849
 20
-146.4483952245426
 30
0.0
  0
VERTEX
  5
DB
330
D3
100
AcDbEntity
  8
_U+30EC_U+30A4_U+30E4_U+30FC 1
 62
     7
370
    25
100
AcDbVertex
100
AcDb2dVertex
 10
131.6548064385848
 20
-146.2073498652934
 30
0.0
  0
VERTEX
  5
DC
330
D3
100
AcDbEntity
  8
_U+30EC_U+30A4_U+30E4_U+30FC 1
 62
     7
370
    25
100
AcDbVertex
100
AcDb2dVertex
 10
131.4472451840848
 20
-145.972743549143
 30
0.0
  0
SEQEND
  5
DD
330
D3
100
AcDbEntity
  8
_U+30EC_U+30A4_U+30E4_U+30FC 1
 62
     7
370
    25
  0
ENDBLK
  5
D2
330
CF
100
AcDbEntity
  8
0
100
AcDbBlockEnd
  0
BLOCK
  5
E0
330
DE
100
AcDbEntity
  8
0
100
AcDbBlockBegin
  2
block 12
 70
     0
 10
0.0
 20
0.0
 30
0.0
  3
block 12
  1

  0
SPLINE
  5
E2
330
DE
100
AcDbEntity
  8
_U+30EC_U+30A4_U+30E4_U+30FC 1
 62
     7
370
    25
100
AcDbSpline
210
0.0
220
0.0
230
1.0
 70
     8
 71
     3
 72
     8
 73
     4
 74
     0
 42
0.0000000001
 43
0.0000000001
 12
1.0
 22
0.0
 32
0.0
 13
1.0
 23
0.0
 33
0.0
 40
0.0
 40
0.0
 40
0.0
 40
0.0
 40
1.0
 40
1.0
 40
1.0
 40
1.0
 10
76.7286375199848
 20
-146.1158589077336
 30
0.0
 10
76.53721544394604
 20
-146.4545207855322
 30
0.0
 10
76.43944472423507
 20
-146.8182625910352
 30
0.0
 10
76.41886606630344
 20
-147.2250894348601
 30
0.0
  0
ENDBLK
  5
E1
330
DE
100
AcDbEntity
  8
0
100
AcDbBlockEnd
  0
BLOCK
  5
E5
330
E3
100
AcDbEntity
  8
0
100
AcDbBlockBegin
  2
block 13
 70
     0
 10
0.0
 20
0.0
 30
0.0
  3
block 13
  1

  0
SPLINE
  5
E7
330
E3
100
AcDbEntity
  8
_U+30EC_U+30A4_U+30E4_U+30FC 1
 62
     7
370
    25
100
AcDbSpline
210
0.0
220
0.0
230
1.0
 70
     8
 71
     3
 72
     8
 73
     4
 74
     0
 42
0.0000000001
 43
0.0000000001
 12
1.0
 22
0.0
 32
0.0
 13
1.0
 23
0.0
 33
0.0
 40
0.0
 40
0.0
 40
0.0
 40
0.0
 40
1.0
 40
1.0
 40
1.0
 40
1.0
 10
132.2225406800684
 20
-147.1721100404258
 30
0.0
 10
132.2054166191622
 20
-146.7968324956344
 30
0.0
 10
132.1012516614872
 20
-146.430679366795
 30
0.0
 10
131.9182768498822
 20
-146.1025838206434
 30
0.0
  0
ENDBLK
  5
E6
330
E3
100
AcDbEntity
  8
0
100
AcDbBlockEnd
  0
BLOCK
  5
EA
330
E8
100
AcDbEntity
  8
0
100
AcDbBlockBegin
  2
block 14
 70
     0
 10
0.0
 20
0.0
 30
0.0
  3
block 14
  1

  0
POLYLINE
  5
EC
330
E8
100
AcDbEntity
  8
_U+30EC_U+30A4_U+30E4_U+30FC 1
 62
     7
370
    25
100
AcDb2dPolyline
 66
     1
 10
0.0
 20
0.0
 30
0.0
  0
VERTEX
  5
ED
330
EC
100
AcDbEntity
  8
_U+30EC_U+30A4_U+30E4_U+30FC 1
 62
     7
370
    25
100
AcDbVertex
100
AcDb2dVertex
 10
131.9371029769351
 20
-146.1347288588934
 30
0.0
  0
VERTEX
  5
EE
330
EC
100
AcDbEntity
  8
_U+30EC_U+30A4_U+30E4_U+30FC 1
 62
     7
370
    25
100
AcDbVertex
100
AcDb2dVertex
 10
131.7166104947856
 20
-145.7018022024434
 30
0.0
  0
SEQEND
  5
EF
330
EC
100
AcDbEntity
  8
_U+30EC_U+30A4_U+30E4_U+30FC 1
 62
     7
370
    25
  0
ENDBLK
  5
EB
330
E8
100
AcDbEntity
  8
0
100
AcDbBlockEnd
  0
BLOCK
  5
F2
330
F0
100
AcDbEntity
  8
0
100
AcDbBlockBegin
  2
block 15
 70
     0
 10
0.0
 20
0.0
 30
0.0
  3
block 15
  1

  0
POLYLINE
  5
F4
330
F0
100
AcDbEntity
  8
_U+30EC_U+30A4_U+30E4_U+30FC 1
 62
     7
370
    25
100
AcDb2dPolyline
 66
     1
 10
0.0
 20
0.0
 30
0.0
  0
VERTEX
  5
F5
330
F4
100
AcDbEntity
  8
_U+30EC_U+30A4_U+30E4_U+30FC 1
 62
     7
370
    25
100
AcDbVertex
100
AcDb2dVertex
 10
76.93649679773526
 20
-145.7018022024434
 30
0.0
  0
VERTEX
  5
F6
330
F4
100
AcDbEntity
  8
_U+30EC_U+30A4_U+30E4_U+30FC 1
 62
     7
370
    25
100
AcDbVertex
100
AcDb2dVertex
 10
76.71600431553442
 20
-146.1347288588934
 30
0.0
  0
SEQEND
  5
F7
330
F4
100
AcDbEntity
  8
_U+30EC_U+30A4_U+30E4_U+30FC 1
 62
     7
370
    25
  0
ENDBLK
  5
F3
330
F0
100
AcDbEntity
  8
0
100
AcDbBlockEnd
  0
BLOCK
  5
FA
330
F8
100
AcDbEntity
  8
0
100
AcDbBlockBegin
  2
block 16
 70
     0
 10
0.0
 20
0.0
 30
0.0
  3
block 16
  1

  0
POLYLINE
  5
FC
330
F8
100
AcDbEntity
  8
_U+30EC_U+30A4_U+30E4_U+30FC 1
 62
     7
370
    25
100
AcDb2dPolyline
 66
     1
 10
0.0
 20
0.0
 30
0.0
  0
VERTEX
  5
FD
330
FC
100
AcDbEntity
  8
_U+30EC_U+30A4_U+30E4_U+30FC 1
 62
     7
370
    25
100
AcDbVertex
100
AcDb2dVertex
 10
87.96615600933514
 20
-140.5707604719935
 30
0.0
  0
VERTEX
  5
FE
330
FC
100
AcDbEntity
  8
_U+30EC_U+30A4_U+30E4_U+30FC 1
 62
     7
370
    25
100
AcDbVertex
100
AcDb2dVertex
 10
87.77962327353488
 20
-140.606781708143
 30
0.0
  0
VERTEX
  5
FF
330
FC
100
AcDbEntity
  8
_U+30EC_U+30A4_U+30E4_U+30FC 1
 62
     7
370
    25
100
AcDbVertex
100
AcDb2dVertex
 10
87.04575151553493
 20
-140.7589774767429
 30
0.0
  0
VERTEX
  5
100
330
FC
100
AcDbEntity
  8
_U+30EC_U+30A4_U+30E4_U+30FC 1
 62
     7
370
    25
100
AcDbVertex
100
AcDb2dVertex
 10
86.33101582878412
 20
-140.9179991103434
 30
0.0
  0
VERTEX
  5
101
330
FC
100
AcDbEntity
  8
_U+30EC_U+30A4_U+30E4_U+30FC 1
 62
     7
370
    25
100
AcDbVertex
100
AcDb2dVertex
 10
85.6361418997351
 20
-141.0837478855933
 30
0.0
  0
VERTEX
  5
102
330
FC
100
AcDbEntity
  8
_U+30EC_U+30A4_U+30E4_U+30FC 1
 62
     7
370
    25
100
AcDbVertex
100
AcDb2dVertex
 10
84.96182710283506
 20
-141.2561326345935
 30
0.0
  0
VERTEX
  5
103
330
FC
100
AcDbEntity
  8
_U+30EC_U+30A4_U+30E4_U+30FC 1
 62
     7
370
    25
100
AcDbVertex
100
AcDb2dVertex
 10
84.30872857918476
 20
-141.4350755293928
 30
0.0
  0
VERTEX
  5
104
330
FC
100
AcDbEntity
  8
_U+30EC_U+30A4_U+30E4_U+30FC 1
 62
     7
370
    25
100
AcDbVertex
100
AcDb2dVertex
 10
83.67746770728512
 20
-141.6205124663933
 30
0.0
  0
VERTEX
  5
105
330
FC
100
AcDbEntity
  8
_U+30EC_U+30A4_U+30E4_U+30FC 1
 62
     7
370
    25
100
AcDbVertex
100
AcDb2dVertex
 10
83.06863159288417
 20
-141.8124037093433
 30
0.0
  0
VERTEX
  5
106
330
FC
100
AcDbEntity
  8
_U+30EC_U+30A4_U+30E4_U+30FC 1
 62
     7
370
    25
100
AcDbVertex
100
AcDb2dVertex
 10
82.48276561848529
 20
-142.010736227293
 30
0.0
  0
VERTEX
  5
107
330
FC
100
AcDbEntity
  8
_U+30EC_U+30A4_U+30E4_U+30FC 1
 62
     7
370
    25
100
AcDbVertex
100
AcDb2dVertex
 10
81.92037642353493
 20
-142.2155336169428
 30
0.0
  0
VERTEX
  5
108
330
FC
100
AcDbEntity
  8
_U+30EC_U+30A4_U+30E4_U+30FC 1
 62
     7
370
    25
100
AcDbVertex
100
AcDb2dVertex
 10
81.38193637483442
 20
-142.4268659979432
 30
0.0
  0
VERTEX
  5
109
330
FC
100
AcDbEntity
  8
_U+30EC_U+30A4_U+30E4_U+30FC 1
 62
     7
370
    25
100
AcDbVertex
100
AcDb2dVertex
 10
80.86788654678402
 20
-142.6448613219933
 30
0.0
  0
VERTEX
  5
10A
330
FC
100
AcDbEntity
  8
_U+30EC_U+30A4_U+30E4_U+30FC 1
 62
     7
370
    25
100
AcDbVertex
100
AcDb2dVertex
 10
80.37864715208403
 20
-142.8697177344929
 30
0.0
  0
VERTEX
  5
10B
330
FC
100
AcDbEntity
  8
_U+30EC_U+30A4_U+30E4_U+30FC 1
 62
     7
370
    25
100
AcDbVertex
100
AcDb2dVertex
 10
79.91463393323478
 20
-143.1017171690433
 30
0.0
  0
VERTEX
  5
10C
330
FC
100
AcDbEntity
  8
_U+30EC_U+30A4_U+30E4_U+30FC 1
 62
     7
370
    25
100
AcDbVertex
100
AcDb2dVertex
 10
79.4762879644851
 20
-143.3412367798931
 30
0.0
  0
VERTEX
  5
10D
330
FC
100
AcDbEntity
  8
_U+30EC_U+30A4_U+30E4_U+30FC 1
 62
     7
370
    25
100
AcDbVertex
100
AcDb2dVertex
 10
79.0641233359848
 20
-143.588747659543
 30
0.0
  0
VERTEX
  5
10E
330
FC
100
AcDbEntity
  8
_U+30EC_U+30A4_U+30E4_U+30FC 1
 62
     7
370
    25
100
AcDbVertex
100
AcDb2dVertex
 10
78.67880016913524
 20
-143.8447962774433
 30
0.0
  0
VERTEX
  5
10F
330
FC
100
AcDbEntity
  8
_U+30EC_U+30A4_U+30E4_U+30FC 1
 62
     7
370
    25
100
AcDbVertex
100
AcDb2dVertex
 10
78.32122594468436
 20
-144.1099399374932
 30
0.0
  0
VERTEX
  5
110
330
FC
100
AcDbEntity
  8
_U+30EC_U+30A4_U+30E4_U+30FC 1
 62
     7
370
    25
100
AcDbVertex
100
AcDb2dVertex
 10
77.99290269963511
 20
-144.3844013354433
 30
0.0
  0
VERTEX
  5
111
330
FC
100
AcDbEntity
  8
_U+30EC_U+30A4_U+30E4_U+30FC 1
 62
     7
370
    25
100
AcDbVertex
100
AcDb2dVertex
 10
77.69583016983412
 20
-144.6678906839435
 30
0.0
  0
VERTEX
  5
112
330
FC
100
AcDbEntity
  8
_U+30EC_U+30A4_U+30E4_U+30FC 1
 62
     7
370
    25
100
AcDbVertex
100
AcDb2dVertex
 10
77.43216902368492
 20
-144.9595298490931
 30
0.0
  0
VERTEX
  5
113
330
FC
100
AcDbEntity
  8
_U+30EC_U+30A4_U+30E4_U+30FC 1
 62
     7
370
    25
100
AcDbVertex
100
AcDb2dVertex
 10
77.20402330508465
 20
-145.2576416605429
 30
0.0
  0
VERTEX
  5
114
330
FC
100
AcDbEntity
  8
_U+30EC_U+30A4_U+30E4_U+30FC 1
 62
     7
370
    25
100
AcDbVertex
100
AcDb2dVertex
 10
77.01285034768486
 20
-145.5599993048434
 30
0.0
  0
VERTEX
  5
115
330
FC
100
AcDbEntity
  8
_U+30EC_U+30A4_U+30E4_U+30FC 1
 62
     7
370
    25
100
AcDbVertex
100
AcDb2dVertex
 10
76.95229500883437
 20
-145.6798283906431
 30
0.0
  0
SEQEND
  5
116
330
FC
100
AcDbEntity
  8
_U+30EC_U+30A4_U+30E4_U+30FC 1
 62
     7
370
    25
  0
ENDBLK
  5
FB
330
F8
100
AcDbEntity
  8
0
100
AcDbBlockEnd
  0
BLOCK
  5
119
330
117
100
AcDbEntity
  8
0
100
AcDbBlockBegin
  2
block 17
 70
     0
 10
0.0
 20
0.0
 30
0.0
  3
block 17
  1

  0
POLYLINE
  5
11B
330
117
100
AcDbEntity
  8
_U+30EC_U+30A4_U+30E4_U+30FC 1
 62
     7
370
    25
100
AcDb2dPolyline
 66
     1
 10
0.0
 20
0.0
 30
0.0
  0
VERTEX
  5
11C
330
11B
100
AcDbEntity
  8
_U+30EC_U+30A4_U+30E4_U+30FC 1
 62
     7
370
    25
100
AcDbVertex
100
AcDb2dVertex
 10
131.7143932019849
 20
-145.6985855476933
 30
0.0
  0
VERTEX
  5
11D
330
11B
100
AcDbEntity
  8
_U+30EC_U+30A4_U+30E4_U+30FC 1
 62
     7
370
    25
100
AcDbVertex
100
AcDb2dVertex
 10
131.5612748300356
 20
-145.4274352988935
 30
0.0
  0
VERTEX
  5
11E
330
11B
100
AcDbEntity
  8
_U+30EC_U+30A4_U+30E4_U+30FC 1
 62
     7
370
    25
100
AcDbVertex
100
AcDb2dVertex
 10
131.3698425923846
 20
-145.1479540013435
 30
0.0
  0
VERTEX
  5
11F
330
11B
100
AcDbEntity
  8
_U+30EC_U+30A4_U+30E4_U+30FC 1
 62
     7
370
    25
100
AcDbVertex
100
AcDb2dVertex
 10
131.1446324025846
 20
-144.8703019674429
 30
0.0
  0
VERTEX
  5
120
330
11B
100
AcDbEntity
  8
_U+30EC_U+30A4_U+30E4_U+30FC 1
 62
     7
370
    25
100
AcDbVertex
100
AcDb2dVertex
 10
130.884782973435
 20
-144.5949492380933
 30
0.0
  0
VERTEX
  5
121
330
11B
100
AcDbEntity
  8
_U+30EC_U+30A4_U+30E4_U+30FC 1
 62
     7
370
    25
100
AcDbVertex
100
AcDb2dVertex
 10
130.5902525817348
 20
-144.3229446746928
 30
0.0
  0
VERTEX
  5
122
330
11B
100
AcDbEntity
  8
_U+30EC_U+30A4_U+30E4_U+30FC 1
 62
     7
370
    25
100
AcDbVertex
100
AcDb2dVertex
 10
130.2619740401845
 20
-144.0556486557932
 30
0.0
  0
VERTEX
  5
123
330
11B
100
AcDbEntity
  8
_U+30EC_U+30A4_U+30E4_U+30FC 1
 62
     7
370
    25
100
AcDbVertex
100
AcDb2dVertex
 10
129.901559654385
 20
-143.7943387649935
 30
0.0
  0
VERTEX
  5
124
330
11B
100
AcDbEntity
  8
_U+30EC_U+30A4_U+30E4_U+30FC 1
 62
     7
370
    25
100
AcDbVertex
100
AcDb2dVertex
 10
129.5108363067354
 20
-143.5399177863434
 30
0.0
  0
VERTEX
  5
125
330
11B
100
AcDbEntity
  8
_U+30EC_U+30A4_U+30E4_U+30FC 1
 62
     7
370
    25
100
AcDbVertex
100
AcDb2dVertex
 10
129.0917232667347
 20
-143.2929888351433
 30
0.0
  0
VERTEX
  5
126
330
11B
100
AcDbEntity
  8
_U+30EC_U+30A4_U+30E4_U+30FC 1
 62
     7
370
    25
100
AcDbVertex
100
AcDb2dVertex
 10
128.645594421535
 20
-143.0536442946433
 30
0.0
  0
VERTEX
  5
127
330
11B
100
AcDbEntity
  8
_U+30EC_U+30A4_U+30E4_U+30FC 1
 62
     7
370
    25
100
AcDbVertex
100
AcDb2dVertex
 10
128.1733632122852
 20
-142.8217111402434
 30
0.0
  0
VERTEX
  5
128
330
11B
100
AcDbEntity
  8
_U+30EC_U+30A4_U+30E4_U+30FC 1
 62
     7
370
    25
100
AcDbVertex
100
AcDb2dVertex
 10
127.6757389341846
 20
-142.596970153293
 30
0.0
  0
VERTEX
  5
129
330
11B
100
AcDbEntity
  8
_U+30EC_U+30A4_U+30E4_U+30FC 1
 62
     7
370
    25
100
AcDbVertex
100
AcDb2dVertex
 10
127.1533131634351
 20
-142.379213687893
 30
0.0
  0
VERTEX
  5
12A
330
11B
100
AcDbEntity
  8
_U+30EC_U+30A4_U+30E4_U+30FC 1
 62
     7
370
    25
100
AcDbVertex
100
AcDb2dVertex
 10
126.6066148911852
 20
-142.1682742686432
 30
0.0
  0
VERTEX
  5
12B
330
11B
100
AcDbEntity
  8
_U+30EC_U+30A4_U+30E4_U+30FC 1
 62
     7
370
    25
100
AcDbVertex
100
AcDb2dVertex
 10
126.0361537372347
 20
-141.964031140543
 30
0.0
  0
VERTEX
  5
12C
330
11B
100
AcDbEntity
  8
_U+30EC_U+30A4_U+30E4_U+30FC 1
 62
     7
370
    25
100
AcDbVertex
100
AcDb2dVertex
 10
125.4424452816354
 20
-141.7664096822434
 30
0.0
  0
VERTEX
  5
12D
330
11B
100
AcDbEntity
  8
_U+30EC_U+30A4_U+30E4_U+30FC 1
 62
     7
370
    25
100
AcDbVertex
100
AcDb2dVertex
 10
124.8260214959852
 20
-141.5753763453433
 30
0.0
  0
VERTEX
  5
12E
330
11B
100
AcDbEntity
  8
_U+30EC_U+30A4_U+30E4_U+30FC 1
 62
     7
370
    25
100
AcDbVertex
100
AcDb2dVertex
 10
124.1874441539357
 20
-141.3909323064935
 30
0.0
  0
VERTEX
  5
12F
330
11B
100
AcDbEntity
  8
_U+30EC_U+30A4_U+30E4_U+30FC 1
 62
     7
370
    25
100
AcDbVertex
100
AcDb2dVertex
 10
123.5273078118846
 20
-141.2131064504934
 30
0.0
  0
VERTEX
  5
130
330
11B
100
AcDbEntity
  8
_U+30EC_U+30A4_U+30E4_U+30FC 1
 62
     7
370
    25
100
AcDbVertex
100
AcDb2dVertex
 10
122.8462383185853
 20
-141.0419499730429
 30
0.0
  0
VERTEX
  5
131
330
11B
100
AcDbEntity
  8
_U+30EC_U+30A4_U+30E4_U+30FC 1
 62
     7
370
    25
100
AcDbVertex
100
AcDb2dVertex
 10
122.1449002658355
 20
-140.8775320623434
 30
0.0
  0
VERTEX
  5
132
330
11B
100
AcDbEntity
  8
_U+30EC_U+30A4_U+30E4_U+30FC 1
 62
     7
370
    25
100
AcDbVertex
100
AcDb2dVertex
 10
121.4239895378853
 20
-140.7199334979932
 30
0.0
  0
VERTEX
  5
133
330
11B
100
AcDbEntity
  8
_U+30EC_U+30A4_U+30E4_U+30FC 1
 62
     7
370
    25
100
AcDbVertex
100
AcDb2dVertex
 10
121.1111336981353
 20
-140.6562045871934
 30
0.0
  0
SEQEND
  5
134
330
11B
100
AcDbEntity
  8
_U+30EC_U+30A4_U+30E4_U+30FC 1
 62
     7
370
    25
  0
ENDBLK
  5
11A
330
117
100
AcDbEntity
  8
0
100
AcDbBlockEnd
  0
BLOCK
  5
137
330
135
100
AcDbEntity
  8
0
100
AcDbBlockBegin
  2
block 18
 70
     0
 10
0.0
 20
0.0
 30
0.0
  3
block 18
  1

  0
POLYLINE
  5
139
330
135
100
AcDbEntity
  8
_U+30EC_U+30A4_U+30E4_U+30FC 1
 62
     7
370
    25
100
AcDb2dPolyline
 66
     1
 10
0.0
 20
0.0
 30
0.0
  0
VERTEX
  5
13A
330
139
100
AcDbEntity
  8
_U+30EC_U+30A4_U+30E4_U+30FC 1
 62
     7
370
    25
100
AcDbVertex
100
AcDb2dVertex
 10
117.4940422212353
 20
-140.0291226453932
 30
0.0
  0
VERTEX
  5
13B
330
139
100
AcDbEntity
  8
_U+30EC_U+30A4_U+30E4_U+30FC 1
 62
     7
370
    25
100
AcDbVertex
100
AcDb2dVertex
 10
116.0383261775349
 20
-139.8188736969431
 30
0.0
  0
SEQEND
  5
13C
330
139
100
AcDbEntity
  8
_U+30EC_U+30A4_U+30E4_U+30FC 1
 62
     7
370
    25
  0
ENDBLK
  5
138
330
135
100
AcDbEntity
  8
0
100
AcDbBlockEnd
  0
BLOCK
  5
13F
330
13D
100
AcDbEntity
  8
0
100
AcDbBlockBegin
  2
block 19
 70
     0
 10
0.0
 20
0.0
 30
0.0
  3
block 19
  1

  0
POLYLINE
  5
141
330
13D
100
AcDbEntity
  8
_U+30EC_U+30A4_U+30E4_U+30FC 1
 62
     7
370
    25
100
AcDb2dPolyline
 66
     1
 10
0.0
 20
0.0
 30
0.0
  0
VERTEX
  5
142
330
141
100
AcDbEntity
  8
_U+30EC_U+30A4_U+30E4_U+30FC 1
 62
     7
370
    25
100
AcDbVertex
100
AcDb2dVertex
 10
92.61478111498474
 20
-139.8188736969431
 30
0.0
  0
VERTEX
  5
143
330
141
100
AcDbEntity
  8
_U+30EC_U+30A4_U+30E4_U+30FC 1
 62
     7
370
    25
100
AcDbVertex
100
AcDb2dVertex
 10
91.15906507123422
 20
-140.0291226453932
 30
0.0
  0
SEQEND
  5
144
330
141
100
AcDbEntity
  8
_U+30EC_U+30A4_U+30E4_U+30FC 1
 62
     7
370
    25
  0
ENDBLK
  5
140
330
13D
100
AcDbEntity
  8
0
100
AcDbBlockEnd
  0
BLOCK
  5
147
330
145
100
AcDbEntity
  8
0
100
AcDbBlockBegin
  2
block 20
 70
     0
 10
0.0
 20
0.0
 30
0.0
  3
block 20
  1

  0
SPLINE
  5
149
330
145
100
AcDbEntity
  8
_U+30EC_U+30A4_U+30E4_U+30FC 1
 62
     7
370
    25
100
AcDbSpline
210
0.0
220
0.0
230
1.0
 70
     8
 71
     3
 72
     8
 73
     4
 74
     0
 42
0.0000000001
 43
0.0000000001
 12
1.0
 22
0.0
 32
0.0
 13
1.0
 23
0.0
 33
0.0
 40
0.0
 40
0.0
 40
0.0
 40
0.0
 40
1.0
 40
1.0
 40
1.0
 40
1.0
 10
114.6527372335989
 20
-139.6347932947291
 30
0.0
 10
107.9449240730343
 20
-138.8379950393909
 30
0.0
 10
101.1674772604528
 20
-138.8194258430878
 30
0.0
 10
94.45539862269634
 20
-139.5794555907472
 30
0.0
  0
ENDBLK
  5
148
330
145
100
AcDbEntity
  8
0
100
AcDbBlockEnd
  0
BLOCK
  5
14C
330
14A
100
AcDbEntity
  8
0
100
AcDbBlockBegin
  2
block 21
 70
     0
 10
0.0
 20
0.0
 30
0.0
  3
block 21
  1

  0
SPLINE
  5
14E
330
14A
100
AcDbEntity
  8
_U+30EC_U+30A4_U+30E4_U+30FC 1
 62
     7
370
    25
100
AcDbSpline
210
0.0
220
0.0
230
1.0
 70
     8
 71
     3
 72
     8
 73
     4
 74
     0
 42
0.0000000001
 43
0.0000000001
 12
1.0
 22
0.0
 32
0.0
 13
1.0
 23
0.0
 33
0.0
 40
0.0
 40
0.0
 40
0.0
 40
0.0
 40
1.0
 40
1.0
 40
1.0
 40
1.0
 10
76.32825821984885
 20
-147.8592247640819
 30
0.0
 10
76.32882740491652
 20
-148.0351105980964
 30
0.0
 10
76.3531320129864
 20
-148.2101150453106
 30
0.0
 10
76.40051395047745
 20
-148.3794995268251
 30
0.0
  0
ENDBLK
  5
14D
330
14A
100
AcDbEntity
  8
0
100
AcDbBlockEnd
  0
BLOCK
  5
151
330
14F
100
AcDbEntity
  8
0
100
AcDbBlockBegin
  2
block 22
 70
     0
 10
0.0
 20
0.0
 30
0.0
  3
block 22
  1

  0
SPLINE
  5
153
330
14F
100
AcDbEntity
  8
_U+30EC_U+30A4_U+30E4_U+30FC 1
 62
     7
370
    25
100
AcDbSpline
210
0.0
220
0.0
230
1.0
 70
     8
 71
     3
 72
     8
 73
     4
 74
     0
 42
0.0000000001
 43
0.0000000001
 12
1.0
 22
0.0
 32
0.0
 13
1.0
 23
0.0
 33
0.0
 40
0.0
 40
0.0
 40
0.0
 40
0.0
 40
1.0
 40
1.0
 40
1.0
 40
1.0
 10
132.2525933419741
 20
-148.379499526836
 30
0.0
 10
132.3826433518138
 20
-147.8934700861878
 30
0.0
 10
132.332457981467
 20
-147.3713152529342
 30
0.0
 10
132.1298584376856
 20
-146.934707073693
 30
0.0
  0
ENDBLK
  5
152
330
14F
100
AcDbEntity
  8
0
100
AcDbBlockEnd
  0
BLOCK
  5
156
330
154
100
AcDbEntity
  8
0
100
AcDbBlockBegin
  2
block 23
 70
     0
 10
0.0
 20
0.0
 30
0.0
  3
block 23
  1

  0
SPLINE
  5
158
330
154
100
AcDbEntity
  8
_U+30EC_U+30A4_U+30E4_U+30FC 1
 62
     7
370
    25
100
AcDbSpline
210
0.0
220
0.0
230
1.0
 70
     8
 71
     3
 72
     8
 73
     4
 74
     0
 42
0.0000000001
 43
0.0000000001
 12
1.0
 22
0.0
 32
0.0
 13
1.0
 23
0.0
 33
0.0
 40
0.0
 40
0.0
 40
0.0
 40
0.0
 40
1.0
 40
1.0
 40
1.0
 40
1.0
 10
76.54238790623488
 20
-146.9042501477433
 30
0.0
 10
76.38940123545808
 20
-147.1957540983335
 30
0.0
 10
76.33218929300324
 20
-147.5300378547329
 30
0.0
 10
76.32825821987964
 20
-147.8592247641152
 30
0.0
  0
ENDBLK
  5
157
330
154
100
AcDbEntity
  8
0
100
AcDbBlockEnd
  0
BLOCK
  5
15B
330
159
100
AcDbEntity
  8
0
100
AcDbBlockBegin
  2
block 24
 70
     0
 10
0.0
 20
0.0
 30
0.0
  3
block 24
  1

  0
POLYLINE
  5
15D
330
159
100
AcDbEntity
  8
_U+30EC_U+30A4_U+30E4_U+30FC 1
 62
     7
370
    25
100
AcDb2dPolyline
 66
     1
 10
0.0
 20
0.0
 30
0.0
  0
VERTEX
  5
15E
330
15D
100
AcDbEntity
  8
_U+30EC_U+30A4_U+30E4_U+30FC 1
 62
     7
370
    25
100
AcDbVertex
100
AcDb2dVertex
 10
77.30926722638463
 20
-145.8992326318929
 30
0.0
  0
VERTEX
  5
15F
330
15D
100
AcDbEntity
  8
_U+30EC_U+30A4_U+30E4_U+30FC 1
 62
     7
370
    25
100
AcDbVertex
100
AcDb2dVertex
 10
77.06861645333498
 20
-146.1449739243431
 30
0.0
  0
VERTEX
  5
160
330
15D
100
AcDbEntity
  8
_U+30EC_U+30A4_U+30E4_U+30FC 1
 62
     7
370
    25
100
AcDbVertex
100
AcDb2dVertex
 10
76.85852200143452
 20
-146.396400866743
 30
0.0
  0
VERTEX
  5
161
330
15D
100
AcDbEntity
  8
_U+30EC_U+30A4_U+30E4_U+30FC 1
 62
     7
370
    25
100
AcDbVertex
100
AcDb2dVertex
 10
76.68303996673525
 20
-146.6495992898434
 30
0.0
  0
VERTEX
  5
162
330
15D
100
AcDbEntity
  8
_U+30EC_U+30A4_U+30E4_U+30FC 1
 62
     7
370
    25
100
AcDbVertex
100
AcDb2dVertex
 10
76.54238790623488
 20
-146.9042501477433
 30
0.0
  0
VERTEX
  5
163
330
15D
100
AcDbEntity
  8
_U+30EC_U+30A4_U+30E4_U+30FC 1
 62
     7
370
    25
100
AcDbVertex
100
AcDb2dVertex
 10
76.43674165358514
 20
-147.160032562693
 30
0.0
  0
VERTEX
  5
164
330
15D
100
AcDbEntity
  8
_U+30EC_U+30A4_U+30E4_U+30FC 1
 62
     7
370
    25
100
AcDbVertex
100
AcDb2dVertex
 10
76.36623829953487
 20
-147.416624282993
 30
0.0
  0
VERTEX
  5
165
330
15D
100
AcDbEntity
  8
_U+30EC_U+30A4_U+30E4_U+30FC 1
 62
     7
370
    25
100
AcDbVertex
100
AcDb2dVertex
 10
76.3309642707352
 20
-147.6737019600435
 30
0.0
  0
VERTEX
  5
166
330
15D
100
AcDbEntity
  8
_U+30EC_U+30A4_U+30E4_U+30FC 1
 62
     7
370
    25
100
AcDbVertex
100
AcDb2dVertex
 10
76.32655352703419
 20
-147.8023218315434
 30
0.0
  0
SEQEND
  5
167
330
15D
100
AcDbEntity
  8
_U+30EC_U+30A4_U+30E4_U+30FC 1
 62
     7
370
    25
  0
ENDBLK
  5
15C
330
159
100
AcDbEntity
  8
0
100
AcDbBlockEnd
  0
BLOCK
  5
16A
330
168
100
AcDbEntity
  8
0
100
AcDbBlockBegin
  2
block 25
 70
     0
 10
0.0
 20
0.0
 30
0.0
  3
block 25
  1

  0
POLYLINE
  5
16C
330
168
100
AcDbEntity
  8
_U+30EC_U+30A4_U+30E4_U+30FC 1
 62
     7
370
    25
100
AcDb2dPolyline
 66
     1
 10
0.0
 20
0.0
 30
0.0
  0
VERTEX
  5
16D
330
16C
100
AcDbEntity
  8
_U+30EC_U+30A4_U+30E4_U+30FC 1
 62
     7
370
    25
100
AcDbVertex
100
AcDb2dVertex
 10
77.45764106863508
 20
-145.7581676937928
 30
0.0
  0
VERTEX
  5
16E
330
16C
100
AcDbEntity
  8
_U+30EC_U+30A4_U+30E4_U+30FC 1
 62
     7
370
    25
100
AcDbVertex
100
AcDb2dVertex
 10
77.49354094613443
 20
-145.7260571593928
 30
0.0
  0
VERTEX
  5
16F
330
16C
100
AcDbEntity
  8
_U+30EC_U+30A4_U+30E4_U+30FC 1
 62
     7
370
    25
100
AcDbVertex
100
AcDb2dVertex
 10
77.78840512388506
 20
-145.4808546485427
 30
0.0
  0
VERTEX
  5
170
330
16C
100
AcDbEntity
  8
_U+30EC_U+30A4_U+30E4_U+30FC 1
 62
     7
370
    25
100
AcDbVertex
100
AcDb2dVertex
 10
78.11670750728442
 20
-145.2385149692429
 30
0.0
  0
VERTEX
  5
171
330
16C
100
AcDbEntity
  8
_U+30EC_U+30A4_U+30E4_U+30FC 1
 62
     7
370
    25
100
AcDbVertex
100
AcDb2dVertex
 10
78.4780338441346
 20
-144.9993437654426
 30
0.0
  0
VERTEX
  5
172
330
16C
100
AcDbEntity
  8
_U+30EC_U+30A4_U+30E4_U+30FC 1
 62
     7
370
    25
100
AcDbVertex
100
AcDb2dVertex
 10
78.87192815893403
 20
-144.7636422456429
 30
0.0
  0
VERTEX
  5
173
330
16C
100
AcDbEntity
  8
_U+30EC_U+30A4_U+30E4_U+30FC 1
 62
     7
370
    25
100
AcDbVertex
100
AcDb2dVertex
 10
79.29789573303437
 20
-144.5317073760927
 30
0.0
  0
VERTEX
  5
174
330
16C
100
AcDbEntity
  8
_U+30EC_U+30A4_U+30E4_U+30FC 1
 62
     7
370
    25
100
AcDbVertex
100
AcDb2dVertex
 10
79.75540012468514
 20
-144.3038314950427
 30
0.0
  0
VERTEX
  5
175
330
16C
100
AcDbEntity
  8
_U+30EC_U+30A4_U+30E4_U+30FC 1
 62
     7
370
    25
100
AcDbVertex
100
AcDb2dVertex
 10
80.24386316888489
 20
-144.080301541193
 30
0.0
  0
VERTEX
  5
176
330
16C
100
AcDbEntity
  8
_U+30EC_U+30A4_U+30E4_U+30FC 1
 62
     7
370
    25
100
AcDbVertex
100
AcDb2dVertex
 10
80.76266944758497
 20
-143.8613992468929
 30
0.0
  0
VERTEX
  5
177
330
16C
100
AcDbEntity
  8
_U+30EC_U+30A4_U+30E4_U+30FC 1
 62
     7
370
    25
100
AcDbVertex
100
AcDb2dVertex
 10
81.31116628993472
 20
-143.6474007520927
 30
0.0
  0
VERTEX
  5
178
330
16C
100
AcDbEntity
  8
_U+30EC_U+30A4_U+30E4_U+30FC 1
 62
     7
370
    25
100
AcDbVertex
100
AcDb2dVertex
 10
81.88866228213433
 20
-143.4385748690927
 30
0.0
  0
VERTEX
  5
179
330
16C
100
AcDbEntity
  8
_U+30EC_U+30A4_U+30E4_U+30FC 1
 62
     7
370
    25
100
AcDbVertex
100
AcDb2dVertex
 10
82.49443024743519
 20
-143.2351857821921
 30
0.0
  0
VERTEX
  5
17A
330
16C
100
AcDbEntity
  8
_U+30EC_U+30A4_U+30E4_U+30FC 1
 62
     7
370
    25
100
AcDbVertex
100
AcDb2dVertex
 10
83.127707246435
 20
-143.0374888051929
 30
0.0
  0
VERTEX
  5
17B
330
16C
100
AcDbEntity
  8
_U+30EC_U+30A4_U+30E4_U+30FC 1
 62
     7
370
    25
100
AcDbVertex
100
AcDb2dVertex
 10
83.78769308678443
 20
-142.8457338525427
 30
0.0
  0
VERTEX
  5
17C
330
16C
100
AcDbEntity
  8
_U+30EC_U+30A4_U+30E4_U+30FC 1
 62
     7
370
    25
100
AcDbVertex
100
AcDb2dVertex
 10
84.47355926383476
 20
-142.6601619681928
 30
0.0
  0
VERTEX
  5
17D
330
16C
100
AcDbEntity
  8
_U+30EC_U+30A4_U+30E4_U+30FC 1
 62
     7
370
    25
100
AcDbVertex
100
AcDb2dVertex
 10
85.18443853013449
 20
-142.481006868493
 30
0.0
  0
VERTEX
  5
17E
330
16C
100
AcDbEntity
  8
_U+30EC_U+30A4_U+30E4_U+30FC 1
 62
     7
370
    25
100
AcDbVertex
100
AcDb2dVertex
 10
85.91943681588472
 20
-142.3084949419928
 30
0.0
  0
VERTEX
  5
17F
330
16C
100
AcDbEntity
  8
_U+30EC_U+30A4_U+30E4_U+30FC 1
 62
     7
370
    25
100
AcDbVertex
100
AcDb2dVertex
 10
86.67762875903446
 20
-142.1428429354428
 30
0.0
  0
VERTEX
  5
180
330
16C
100
AcDbEntity
  8
_U+30EC_U+30A4_U+30E4_U+30FC 1
 62
     7
370
    25
100
AcDbVertex
100
AcDb2dVertex
 10
87.45805770508413
 20
-141.9842598821926
 30
0.0
  0
VERTEX
  5
181
330
16C
100
AcDbEntity
  8
_U+30EC_U+30A4_U+30E4_U+30FC 1
 62
     7
370
    25
100
AcDbVertex
100
AcDb2dVertex
 10
88.25974166743401
 20
-141.8329455595932
 30
0.0
  0
VERTEX
  5
182
330
16C
100
AcDbEntity
  8
_U+30EC_U+30A4_U+30E4_U+30FC 1
 62
     7
370
    25
100
AcDbVertex
100
AcDb2dVertex
 10
89.08166885723433
 20
-141.6890904887933
 30
0.0
  0
VERTEX
  5
183
330
16C
100
AcDbEntity
  8
_U+30EC_U+30A4_U+30E4_U+30FC 1
 62
     7
370
    25
100
AcDbVertex
100
AcDb2dVertex
 10
89.92280513398461
 20
-141.5528763205429
 30
0.0
  0
VERTEX
  5
184
330
16C
100
AcDbEntity
  8
_U+30EC_U+30A4_U+30E4_U+30FC 1
 62
     7
370
    25
100
AcDbVertex
100
AcDb2dVertex
 10
90.78208953493456
 20
-141.4244739068927
 30
0.0
  0
VERTEX
  5
185
330
16C
100
AcDbEntity
  8
_U+30EC_U+30A4_U+30E4_U+30FC 1
 62
     7
370
    25
100
AcDbVertex
100
AcDb2dVertex
 10
91.65843874563443
 20
-141.3040456150929
 30
0.0
  0
VERTEX
  5
186
330
16C
100
AcDbEntity
  8
_U+30EC_U+30A4_U+30E4_U+30FC 1
 62
     7
370
    25
100
AcDbVertex
100
AcDb2dVertex
 10
92.55075082533425
 20
-141.1917433992926
 30
0.0
  0
VERTEX
  5
187
330
16C
100
AcDbEntity
  8
_U+30EC_U+30A4_U+30E4_U+30FC 1
 62
     7
370
    25
100
AcDbVertex
100
AcDb2dVertex
 10
93.45790073623445
 20
-141.0877080291426
 30
0.0
  0
VERTEX
  5
188
330
16C
100
AcDbEntity
  8
_U+30EC_U+30A4_U+30E4_U+30FC 1
 62
     7
370
    25
100
AcDbVertex
100
AcDb2dVertex
 10
94.37874406923417
 20
-140.9920710183422
 30
0.0
  0
VERTEX
  5
189
330
16C
100
AcDbEntity
  8
_U+30EC_U+30A4_U+30E4_U+30FC 1
 62
     7
370
    25
100
AcDbVertex
100
AcDb2dVertex
 10
95.31212225903474
 20
-140.9049534673432
 30
0.0
  0
VERTEX
  5
18A
330
16C
100
AcDbEntity
  8
_U+30EC_U+30A4_U+30E4_U+30FC 1
 62
     7
370
    25
100
AcDbVertex
100
AcDb2dVertex
 10
96.25685811393456
 20
-140.8264633638427
 30
0.0
  0
VERTEX
  5
18B
330
16C
100
AcDbEntity
  8
_U+30EC_U+30A4_U+30E4_U+30FC 1
 62
     7
370
    25
100
AcDbVertex
100
AcDb2dVertex
 10
97.21176177613508
 20
-140.7567017535928
 30
0.0
  0
VERTEX
  5
18C
330
16C
100
AcDbEntity
  8
_U+30EC_U+30A4_U+30E4_U+30FC 1
 62
     7
370
    25
100
AcDbVertex
100
AcDb2dVertex
 10
98.17563034943478
 20
-140.6957550266928
 30
0.0
  0
VERTEX
  5
18D
330
16C
100
AcDbEntity
  8
_U+30EC_U+30A4_U+30E4_U+30FC 1
 62
     7
370
    25
100
AcDbVertex
100
AcDb2dVertex
 10
99.14724901668512
 20
-140.6437010886428
 30
0.0
  0
VERTEX
  5
18E
330
16C
100
AcDbEntity
  8
_U+30EC_U+30A4_U+30E4_U+30FC 1
 62
     7
370
    25
100
AcDbVertex
100
AcDb2dVertex
 10
100.1253932749348
 20
-140.6006039606427
 30
0.0
  0
VERTEX
  5
18F
330
16C
100
AcDbEntity
  8
_U+30EC_U+30A4_U+30E4_U+30FC 1
 62
     7
370
    25
100
AcDbVertex
100
AcDb2dVertex
 10
101.1088311707346
 20
-140.5665199505928
 30
0.0
  0
VERTEX
  5
190
330
16C
100
AcDbEntity
  8
_U+30EC_U+30A4_U+30E4_U+30FC 1
 62
     7
370
    25
100
AcDbVertex
100
AcDb2dVertex
 10
102.0963232999343
 20
-140.5414899396429
 30
0.0
  0
VERTEX
  5
191
330
16C
100
AcDbEntity
  8
_U+30EC_U+30A4_U+30E4_U+30FC 1
 62
     7
370
    25
100
AcDbVertex
100
AcDb2dVertex
 10
103.086625415585
 20
-140.5255470953427
 30
0.0
  0
VERTEX
  5
192
330
16C
100
AcDbEntity
  8
_U+30EC_U+30A4_U+30E4_U+30FC 1
 62
     7
370
    25
100
AcDbVertex
100
AcDb2dVertex
 10
104.078489848185
 20
-140.5187114726432
 30
0.0
  0
VERTEX
  5
193
330
16C
100
AcDbEntity
  8
_U+30EC_U+30A4_U+30E4_U+30FC 1
 62
     7
370
    25
100
AcDbVertex
100
AcDb2dVertex
 10
105.0706668791844
 20
-140.5209900135433
 30
0.0
  0
VERTEX
  5
194
330
16C
100
AcDbEntity
  8
_U+30EC_U+30A4_U+30E4_U+30FC 1
 62
     7
370
    25
100
AcDbVertex
100
AcDb2dVertex
 10
106.0619063710352
 20
-140.5323811753927
 30
0.0
  0
VERTEX
  5
195
330
16C
100
AcDbEntity
  8
_U+30EC_U+30A4_U+30E4_U+30FC 1
 62
     7
370
    25
100
AcDbVertex
100
AcDb2dVertex
 10
107.0509592105852
 20
-140.5528710740432
 30
0.0
  0
VERTEX
  5
196
330
16C
100
AcDbEntity
  8
_U+30EC_U+30A4_U+30E4_U+30FC 1
 62
     7
370
    25
100
AcDbVertex
100
AcDb2dVertex
 10
108.0365795676848
 20
-140.5824327125932
 30
0.0
  0
VERTEX
  5
197
330
16C
100
AcDbEntity
  8
_U+30EC_U+30A4_U+30E4_U+30FC 1
 62
     7
370
    25
100
AcDbVertex
100
AcDb2dVertex
 10
109.0175248717354
 20
-140.6210290666428
 30
0.0
  0
VERTEX
  5
198
330
16C
100
AcDbEntity
  8
_U+30EC_U+30A4_U+30E4_U+30FC 1
 62
     7
370
    25
100
AcDbVertex
100
AcDb2dVertex
 10
109.9925600027351
 20
-140.6686123130928
 30
0.0
  0
VERTEX
  5
199
330
16C
100
AcDbEntity
  8
_U+30EC_U+30A4_U+30E4_U+30FC 1
 62
     7
370
    25
100
AcDbVertex
100
AcDb2dVertex
 10
110.9604559873851
 20
-140.7251215160428
 30
0.0
  0
VERTEX
  5
19A
330
16C
100
AcDbEntity
  8
_U+30EC_U+30A4_U+30E4_U+30FC 1
 62
     7
370
    25
100
AcDbVertex
100
AcDb2dVertex
 10
111.9199931656356
 20
-140.7904857120428
 30
0.0
  0
VERTEX
  5
19B
330
16C
100
AcDbEntity
  8
_U+30EC_U+30A4_U+30E4_U+30FC 1
 62
     7
370
    25
100
AcDbVertex
100
AcDb2dVertex
 10
112.869963053385
 20
-140.8646231389926
 30
0.0
  0
VERTEX
  5
19C
330
16C
100
AcDbEntity
  8
_U+30EC_U+30A4_U+30E4_U+30FC 1
 62
     7
370
    25
100
AcDbVertex
100
AcDb2dVertex
 10
113.8091675971845
 20
-140.9474404646929
 30
0.0
  0
VERTEX
  5
19D
330
16C
100
AcDbEntity
  8
_U+30EC_U+30A4_U+30E4_U+30FC 1
 62
     7
370
    25
100
AcDbVertex
100
AcDb2dVertex
 10
114.736424389985
 20
-141.0388320153923
 30
0.0
  0
VERTEX
  5
19E
330
16C
100
AcDbEntity
  8
_U+30EC_U+30A4_U+30E4_U+30FC 1
 62
     7
370
    25
100
AcDbVertex
100
AcDb2dVertex
 10
115.6505651806851
 20
-141.1386836326928
 30
0.0
  0
VERTEX
  5
19F
330
16C
100
AcDbEntity
  8
_U+30EC_U+30A4_U+30E4_U+30FC 1
 62
     7
370
    25
100
AcDbVertex
100
AcDb2dVertex
 10
116.5504373644848
 20
-141.2468695880427
 30
0.0
  0
VERTEX
  5
1A0
330
16C
100
AcDbEntity
  8
_U+30EC_U+30A4_U+30E4_U+30FC 1
 62
     7
370
    25
100
AcDbVertex
100
AcDb2dVertex
 10
117.4349084531351
 20
-141.3632533540428
 30
0.0
  0
VERTEX
  5
1A1
330
16C
100
AcDbEntity
  8
_U+30EC_U+30A4_U+30E4_U+30FC 1
 62
     7
370
    25
100
AcDbVertex
100
AcDb2dVertex
 10
118.3028623496857
 20
-141.4876879902426
 30
0.0
  0
VERTEX
  5
1A2
330
16C
100
AcDbEntity
  8
_U+30EC_U+30A4_U+30E4_U+30FC 1
 62
     7
370
    25
100
AcDbVertex
100
AcDb2dVertex
 10
119.1532060538854
 20
-141.6200173002433
 30
0.0
  0
VERTEX
  5
1A3
330
16C
100
AcDbEntity
  8
_U+30EC_U+30A4_U+30E4_U+30FC 1
 62
     7
370
    25
100
AcDbVertex
100
AcDb2dVertex
 10
119.9848681723355
 20
-141.7600742886428
 30
0.0
  0
VERTEX
  5
1A4
330
16C
100
AcDbEntity
  8
_U+30EC_U+30A4_U+30E4_U+30FC 1
 62
     7
370
    25
100
AcDbVertex
100
AcDb2dVertex
 10
120.7968011533349
 20
-141.907681932743
 30
0.0
  0
VERTEX
  5
1A5
330
16C
100
AcDbEntity
  8
_U+30EC_U+30A4_U+30E4_U+30FC 1
 62
     7
370
    25
100
AcDbVertex
100
AcDb2dVertex
 10
121.5879827772851
 20
-142.0626551107427
 30
0.0
  0
VERTEX
  5
1A6
330
16C
100
AcDbEntity
  8
_U+30EC_U+30A4_U+30E4_U+30FC 1
 62
     7
370
    25
100
AcDbVertex
100
AcDb2dVertex
 10
122.3574146663356
 20
-142.2247982876931
 30
0.0
  0
VERTEX
  5
1A7
330
16C
100
AcDbEntity
  8
_U+30EC_U+30A4_U+30E4_U+30FC 1
 62
     7
370
    25
100
AcDbVertex
100
AcDb2dVertex
 10
123.1041267549349
 20
-142.3939066726433
 30
0.0
  0
VERTEX
  5
1A8
330
16C
100
AcDbEntity
  8
_U+30EC_U+30A4_U+30E4_U+30FC 1
 62
     7
370
    25
100
AcDbVertex
100
AcDb2dVertex
 10
123.8271802698854
 20
-142.5697681468927
 30
0.0
  0
VERTEX
  5
1A9
330
16C
100
AcDbEntity
  8
_U+30EC_U+30A4_U+30E4_U+30FC 1
 62
     7
370
    25
100
AcDbVertex
100
AcDb2dVertex
 10
124.5256632601351
 20
-142.752160178493
 30
0.0
  0
VERTEX
  5
1AA
330
16C
100
AcDbEntity
  8
_U+30EC_U+30A4_U+30E4_U+30FC 1
 62
     7
370
    25
100
AcDbVertex
100
AcDb2dVertex
 10
125.1986950670846
 20
-142.9408532936427
 30
0.0
  0
VERTEX
  5
1AB
330
16C
100
AcDbEntity
  8
_U+30EC_U+30A4_U+30E4_U+30FC 1
 62
     7
370
    25
100
AcDbVertex
100
AcDb2dVertex
 10
125.8454278146349
 20
-143.1356099192927
 30
0.0
  0
VERTEX
  5
1AC
330
16C
100
AcDbEntity
  8
_U+30EC_U+30A4_U+30E4_U+30FC 1
 62
     7
370
    25
100
AcDbVertex
100
AcDb2dVertex
 10
126.465047899385
 20
-143.3361847690427
 30
0.0
  0
VERTEX
  5
1AD
330
16C
100
AcDbEntity
  8
_U+30EC_U+30A4_U+30E4_U+30FC 1
 62
     7
370
    25
100
AcDbVertex
100
AcDb2dVertex
 10
127.0567730103848
 20
-143.5423244574429
 30
0.0
  0
VERTEX
  5
1AE
330
16C
100
AcDbEntity
  8
_U+30EC_U+30A4_U+30E4_U+30FC 1
 62
     7
370
    25
100
AcDbVertex
100
AcDb2dVertex
 10
127.6198580895852
 20
-143.753769813993
 30
0.0
  0
VERTEX
  5
1AF
330
16C
100
AcDbEntity
  8
_U+30EC_U+30A4_U+30E4_U+30FC 1
 62
     7
370
    25
100
AcDbVertex
100
AcDb2dVertex
 10
128.1535938416856
 20
-143.9702547260431
 30
0.0
  0
VERTEX
  5
1B0
330
16C
100
AcDbEntity
  8
_U+30EC_U+30A4_U+30E4_U+30FC 1
 62
     7
370
    25
100
AcDbVertex
100
AcDb2dVertex
 10
128.6573082243353
 20
-144.1915053676429
 30
0.0
  0
VERTEX
  5
1B1
330
16C
100
AcDbEntity
  8
_U+30EC_U+30A4_U+30E4_U+30FC 1
 62
     7
370
    25
100
AcDbVertex
100
AcDb2dVertex
 10
129.1303664480854
 20
-144.4172440560431
 30
0.0
  0
VERTEX
  5
1B2
330
16C
100
AcDbEntity
  8
_U+30EC_U+30A4_U+30E4_U+30FC 1
 62
     7
370
    25
100
AcDbVertex
100
AcDb2dVertex
 10
129.5721724664349
 20
-144.6471855879433
 30
0.0
  0
VERTEX
  5
1B3
330
16C
100
AcDbEntity
  8
_U+30EC_U+30A4_U+30E4_U+30FC 1
 62
     7
370
    25
100
AcDbVertex
100
AcDb2dVertex
 10
129.9821659957357
 20
-144.8810405176929
 30
0.0
  0
VERTEX
  5
1B4
330
16C
100
AcDbEntity
  8
_U+30EC_U+30A4_U+30E4_U+30FC 1
 62
     7
370
    25
100
AcDbVertex
100
AcDb2dVertex
 10
130.3598359261845
 20
-145.1185143859429
 30
0.0
  0
VERTEX
  5
1B5
330
16C
100
AcDbEntity
  8
_U+30EC_U+30A4_U+30E4_U+30FC 1
 62
     7
370
    25
100
AcDbVertex
100
AcDb2dVertex
 10
130.7047054206352
 20
-145.3593077196426
 30
0.0
  0
VERTEX
  5
1B6
330
16C
100
AcDbEntity
  8
_U+30EC_U+30A4_U+30E4_U+30FC 1
 62
     7
370
    25
100
AcDbVertex
100
AcDb2dVertex
 10
131.0163363849353
 20
-145.6031171888932
 30
0.0
  0
VERTEX
  5
1B7
330
16C
100
AcDbEntity
  8
_U+30EC_U+30A4_U+30E4_U+30FC 1
 62
     7
370
    25
100
AcDbVertex
100
AcDb2dVertex
 10
131.2943413888352
 20
-145.8496356072927
 30
0.0
  0
VERTEX
  5
1B8
330
16C
100
AcDbEntity
  8
_U+30EC_U+30A4_U+30E4_U+30FC 1
 62
     7
370
    25
100
AcDbVertex
100
AcDb2dVertex
 10
131.4472451840848
 20
-145.972743549143
 30
0.0
  0
SEQEND
  5
1B9
330
16C
100
AcDbEntity
  8
_U+30EC_U+30A4_U+30E4_U+30FC 1
 62
     7
370
    25
  0
ENDBLK
  5
16B
330
168
100
AcDbEntity
  8
0
100
AcDbBlockEnd
  0
BLOCK
  5
1BC
330
1BA
100
AcDbEntity
  8
0
100
AcDbBlockBegin
  2
block 26
 70
     0
 10
0.0
 20
0.0
 30
0.0
  3
block 26
  1

  0
POLYLINE
  5
1BE
330
1BA
100
AcDbEntity
  8
_U+30EC_U+30A4_U+30E4_U+30FC 1
 62
     7
370
    25
100
AcDb2dPolyline
 66
     1
 10
0.0
 20
0.0
 30
0.0
  0
VERTEX
  5
1BF
330
1BE
100
AcDbEntity
  8
_U+30EC_U+30A4_U+30E4_U+30FC 1
 62
     7
370
    25
100
AcDbVertex
100
AcDb2dVertex
 10
76.43944472423507
 20
-147.1522228498431
 30
0.0
  0
VERTEX
  5
1C0
330
1BE
100
AcDbEntity
  8
_U+30EC_U+30A4_U+30E4_U+30FC 1
 62
     7
370
    25
100
AcDbVertex
100
AcDb2dVertex
 10
76.46609694113484
 20
-146.9873791843928
 30
0.0
  0
VERTEX
  5
1C1
330
1BE
100
AcDbEntity
  8
_U+30EC_U+30A4_U+30E4_U+30FC 1
 62
     7
370
    25
100
AcDbVertex
100
AcDb2dVertex
 10
76.53634995573425
 20
-146.7317038893932
 30
0.0
  0
VERTEX
  5
1C2
330
1BE
100
AcDbEntity
  8
_U+30EC_U+30A4_U+30E4_U+30FC 1
 62
     7
370
    25
100
AcDbVertex
100
AcDb2dVertex
 10
76.65392242422114
 20
-146.4576471760765
 30
0.0
  0
VERTEX
  5
1C3
330
1BE
100
AcDbEntity
  8
_U+30EC_U+30A4_U+30E4_U+30FC 1
 62
     7
370
    25
100
AcDbVertex
100
AcDb2dVertex
 10
76.8021078050388
 20
-146.2266248597021
 30
0.0
  0
VERTEX
  5
1C4
330
1BE
100
AcDbEntity
  8
_U+30EC_U+30A4_U+30E4_U+30FC 1
 62
     7
370
    25
100
AcDbVertex
100
AcDb2dVertex
 10
77.04096287838406
 20
-145.972743549143
 30
0.0
  0
SEQEND
  5
1C5
330
1BE
100
AcDbEntity
  8
_U+30EC_U+30A4_U+30E4_U+30FC 1
 62
     7
370
    25
  0
ENDBLK
  5
1BD
330
1BA
100
AcDbEntity
  8
0
100
AcDbBlockEnd
  0
BLOCK
  5
1C8
330
1C6
100
AcDbEntity
  8
0
100
AcDbBlockBegin
  2
block 27
 70
     0
 10
0.0
 20
0.0
 30
0.0
  3
block 27
  1

  0
SPLINE
  5
1CA
330
1C6
100
AcDbEntity
  8
_U+30EC_U+30A4_U+30E4_U+30FC 1
 62
     7
370
    25
100
AcDbSpline
210
0.0
220
0.0
230
1.0
 70
     8
 71
     3
 72
     8
 73
     4
 74
     0
 42
0.0000000001
 43
0.0000000001
 12
1.0
 22
0.0
 32
0.0
 13
1.0
 23
0.0
 33
0.0
 40
0.0
 40
0.0
 40
0.0
 40
0.0
 40
1.0
 40
1.0
 40
1.0
 40
1.0
 10
132.2097942268223
 20
-147.1214392627333
 30
0.0
 10
132.0971003976803
 20
-146.5181382547713
 30
0.0
 10
131.7887698022073
 20
-145.968774788276
 30
0.0
 10
131.3324883615343
 20
-145.5583125461245
 30
0.0
  0
ENDBLK
  5
1C9
330
1C6
100
AcDbEntity
  8
0
100
AcDbBlockEnd
  0
BLOCK
  5
1CD
330
1CB
100
AcDbEntity
  8
0
100
AcDbBlockBegin
  2
block 28
 70
     0
 10
0.0
 20
0.0
 30
0.0
  3
block 28
  1

  0
POLYLINE
  5
1CF
330
1CB
100
AcDbEntity
  8
_U+30EC_U+30A4_U+30E4_U+30FC 1
 62
     7
370
    25
100
AcDb2dPolyline
 66
     1
 10
0.0
 20
0.0
 30
0.0
  0
VERTEX
  5
1D0
330
1CF
100
AcDbEntity
  8
_U+30EC_U+30A4_U+30E4_U+30FC 1
 62
     7
370
    25
100
AcDbVertex
100
AcDb2dVertex
 10
131.3632333701034
 20
-145.5925348409681
 30
0.0
  0
VERTEX
  5
1D1
330
1CF
100
AcDbEntity
  8
_U+30EC_U+30A4_U+30E4_U+30FC 1
 62
     7
370
    25
100
AcDbVertex
100
AcDb2dVertex
 10
131.103112739853
 20
-145.345664498318
 30
0.0
  0
VERTEX
  5
1D2
330
1CF
100
AcDbEntity
  8
_U+30EC_U+30A4_U+30E4_U+30FC 1
 62
     7
370
    25
100
AcDbVertex
100
AcDb2dVertex
 10
130.8093035643529
 20
-145.1013390020183
 30
0.0
  0
VERTEX
  5
1D3
330
1CF
100
AcDbEntity
  8
_U+30EC_U+30A4_U+30E4_U+30FC 1
 62
     7
370
    25
100
AcDbVertex
100
AcDb2dVertex
 10
130.4821753924533
 20
-144.8598665027176
 30
0.0
  0
VERTEX
  5
1D4
330
1CF
100
AcDbEntity
  8
_U+30EC_U+30A4_U+30E4_U+30FC 1
 62
     7
370
    25
100
AcDbVertex
100
AcDb2dVertex
 10
130.1221424763536
 20
-144.6215509087678
 30
0.0
  0
VERTEX
  5
1D5
330
1CF
100
AcDbEntity
  8
_U+30EC_U+30A4_U+30E4_U+30FC 1
 62
     7
370
    25
100
AcDbVertex
100
AcDb2dVertex
 10
129.7296578114536
 20
-144.3866924645181
 30
0.0
  0
VERTEX
  5
1D6
330
1CF
100
AcDbEntity
  8
_U+30EC_U+30A4_U+30E4_U+30FC 1
 62
     7
370
    25
100
AcDbVertex
100
AcDb2dVertex
 10
129.3052146261032
 20
-144.1555873649185
 30
0.0
  0
VERTEX
  5
1D7
330
1CF
100
AcDbEntity
  8
_U+30EC_U+30A4_U+30E4_U+30FC 1
 62
     7
370
    25
100
AcDbVertex
100
AcDb2dVertex
 10
128.8493478720532
 20
-143.9285265982684
 30
0.0
  0
VERTEX
  5
1D8
330
1CF
100
AcDbEntity
  8
_U+30EC_U+30A4_U+30E4_U+30FC 1
 62
     7
370
    25
100
AcDbVertex
100
AcDb2dVertex
 10
128.3626312440039
 20
-143.7057965249183
 30
0.0
  0
VERTEX
  5
1D9
330
1CF
100
AcDbEntity
  8
_U+30EC_U+30A4_U+30E4_U+30FC 1
 62
     7
370
    25
100
AcDbVertex
100
AcDb2dVertex
 10
127.8456816499531
 20
-143.487677527268
 30
0.0
  0
VERTEX
  5
1DA
330
1CF
100
AcDbEntity
  8
_U+30EC_U+30A4_U+30E4_U+30FC 1
 62
     7
370
    25
100
AcDbVertex
100
AcDb2dVertex
 10
127.2991458004034
 20
-143.274444202618
 30
0.0
  0
VERTEX
  5
1DB
330
1CF
100
AcDbEntity
  8
_U+30EC_U+30A4_U+30E4_U+30FC 1
 62
     7
370
    25
100
AcDbVertex
100
AcDb2dVertex
 10
126.723716599254
 20
-143.0663657489184
 30
0.0
  0
VERTEX
  5
1DC
330
1CF
100
AcDbEntity
  8
_U+30EC_U+30A4_U+30E4_U+30FC 1
 62
     7
370
    25
100
AcDbVertex
100
AcDb2dVertex
 10
126.1201152628038
 20
-142.8637040364684
 30
0.0
  0
VERTEX
  5
1DD
330
1CF
100
AcDbEntity
  8
_U+30EC_U+30A4_U+30E4_U+30FC 1
 62
     7
370
    25
100
AcDbVertex
100
AcDb2dVertex
 10
125.4891047304038
 20
-142.6667143790186
 30
0.0
  0
VERTEX
  5
1DE
330
1CF
100
AcDbEntity
  8
_U+30EC_U+30A4_U+30E4_U+30FC 1
 62
     7
370
    25
100
AcDbVertex
100
AcDb2dVertex
 10
124.8314792340037
 20
-142.4756455340185
 30
0.0
  0
VERTEX
  5
1DF
330
1CF
100
AcDbEntity
  8
_U+30EC_U+30A4_U+30E4_U+30FC 1
 62
     7
370
    25
100
AcDbVertex
100
AcDb2dVertex
 10
124.1480672782032
 20
-142.2907373885182
 30
0.0
  0
VERTEX
  5
1E0
330
1CF
100
AcDbEntity
  8
_U+30EC_U+30A4_U+30E4_U+30FC 1
 62
     7
370
    25
100
AcDbVertex
100
AcDb2dVertex
 10
123.439730150053
 20
-142.1122232730683
 30
0.0
  0
VERTEX
  5
1E1
330
1CF
100
AcDbEntity
  8
_U+30EC_U+30A4_U+30E4_U+30FC 1
 62
     7
370
    25
100
AcDbVertex
100
AcDb2dVertex
 10
122.7073619192031
 20
-141.9403284192682
 30
0.0
  0
VERTEX
  5
1E2
330
1CF
100
AcDbEntity
  8
_U+30EC_U+30A4_U+30E4_U+30FC 1
 62
     7
370
    25
100
AcDbVertex
100
AcDb2dVertex
 10
121.9518819873536
 20
-141.7752691881683
 30
0.0
  0
VERTEX
  5
1E3
330
1CF
100
AcDbEntity
  8
_U+30EC_U+30A4_U+30E4_U+30FC 1
 62
     7
370
    25
100
AcDbVertex
100
AcDb2dVertex
 10
121.1742455189531
 20
-141.6172534561183
 30
0.0
  0
VERTEX
  5
1E4
330
1CF
100
AcDbEntity
  8
_U+30EC_U+30A4_U+30E4_U+30FC 1
 62
     7
370
    25
100
AcDbVertex
100
AcDb2dVertex
 10
120.3754300301537
 20
-141.4664806148181
 30
0.0
  0
VERTEX
  5
1E5
330
1CF
100
AcDbEntity
  8
_U+30EC_U+30A4_U+30E4_U+30FC 1
 62
     7
370
    25
100
AcDbVertex
100
AcDb2dVertex
 10
119.5564428394538
 20
-141.3231400283682
 30
0.0
  0
VERTEX
  5
1E6
330
1CF
100
AcDbEntity
  8
_U+30EC_U+30A4_U+30E4_U+30FC 1
 62
     7
370
    25
100
AcDbVertex
100
AcDb2dVertex
 10
118.7183165972529
 20
-141.1874129618681
 30
0.0
  0
VERTEX
  5
1E7
330
1CF
100
AcDbEntity
  8
_U+30EC_U+30A4_U+30E4_U+30FC 1
 62
     7
370
    25
100
AcDbVertex
100
AcDb2dVertex
 10
117.8621063059028
 20
-141.0594698817181
 30
0.0
  0
VERTEX
  5
1E8
330
1CF
100
AcDbEntity
  8
_U+30EC_U+30A4_U+30E4_U+30FC 1
 62
     7
370
    25
100
AcDbVertex
100
AcDb2dVertex
 10
116.9888908093531
 20
-140.939472769468
 30
0.0
  0
VERTEX
  5
1E9
330
1CF
100
AcDbEntity
  8
_U+30EC_U+30A4_U+30E4_U+30FC 1
 62
     7
370
    25
100
AcDbVertex
100
AcDb2dVertex
 10
116.0997713034528
 20
-140.8275716508678
 30
0.0
  0
VERTEX
  5
1EA
330
1CF
100
AcDbEntity
  8
_U+30EC_U+30A4_U+30E4_U+30FC 1
 62
     7
370
    25
100
AcDbVertex
100
AcDb2dVertex
 10
115.1958668654528
 20
-140.7239088383682
 30
0.0
  0
VERTEX
  5
1EB
330
1CF
100
AcDbEntity
  8
_U+30EC_U+30A4_U+30E4_U+30FC 1
 62
     7
370
    25
100
AcDbVertex
100
AcDb2dVertex
 10
114.2783174341038
 20
-140.6286143029186
 30
0.0
  0
VERTEX
  5
1EC
330
1CF
100
AcDbEntity
  8
_U+30EC_U+30A4_U+30E4_U+30FC 1
 62
     7
370
    25
100
AcDbVertex
100
AcDb2dVertex
 10
113.3482785945529
 20
-140.5418076022683
 30
0.0
  0
VERTEX
  5
1ED
330
1CF
100
AcDbEntity
  8
_U+30EC_U+30A4_U+30E4_U+30FC 1
 62
     7
370
    25
100
AcDbVertex
100
AcDb2dVertex
 10
112.4069223230528
 20
-140.4635990382185
 30
0.0
  0
VERTEX
  5
1EE
330
1CF
100
AcDbEntity
  8
_U+30EC_U+30A4_U+30E4_U+30FC 1
 62
     7
370
    25
100
AcDbVertex
100
AcDb2dVertex
 10
111.455434752053
 20
-140.3940865710682
 30
0.0
  0
VERTEX
  5
1EF
330
1CF
100
AcDbEntity
  8
_U+30EC_U+30A4_U+30E4_U+30FC 1
 62
     7
370
    25
100
AcDbVertex
100
AcDb2dVertex
 10
110.4950146799536
 20
-140.3333581336182
 30
0.0
  0
VERTEX
  5
1F0
330
1CF
100
AcDbEntity
  8
_U+30EC_U+30A4_U+30E4_U+30FC 1
 62
     7
370
    25
100
AcDbVertex
100
AcDb2dVertex
 10
109.526872081103
 20
-140.2814900887184
 30
0.0
  0
VERTEX
  5
1F1
330
1CF
100
AcDbEntity
  8
_U+30EC_U+30A4_U+30E4_U+30FC 1
 62
     7
370
    25
100
AcDbVertex
100
AcDb2dVertex
 10
108.5522269880035
 20
-140.2385480002182
 30
0.0
  0
VERTEX
  5
1F2
330
1CF
100
AcDbEntity
  8
_U+30EC_U+30A4_U+30E4_U+30FC 1
 62
     7
370
    25
100
AcDbVertex
100
AcDb2dVertex
 10
107.572307628903
 20
-140.2045850907181
 30
0.0
  0
VERTEX
  5
1F3
330
1CF
100
AcDbEntity
  8
_U+30EC_U+30A4_U+30E4_U+30FC 1
 62
     7
370
    25
100
AcDbVertex
100
AcDb2dVertex
 10
106.5883481925029
 20
-140.179645326618
 30
0.0
  0
VERTEX
  5
1F4
330
1CF
100
AcDbEntity
  8
_U+30EC_U+30A4_U+30E4_U+30FC 1
 62
     7
370
    25
100
AcDbVertex
100
AcDb2dVertex
 10
105.6015887347526
 20
-140.163759561568
 30
0.0
  0
VERTEX
  5
1F5
330
1CF
100
AcDbEntity
  8
_U+30EC_U+30A4_U+30E4_U+30FC 1
 62
     7
370
    25
100
AcDbVertex
100
AcDb2dVertex
 10
104.6132726412031
 20
-140.1569478504177
 30
0.0
  0
VERTEX
  5
1F6
330
1CF
100
AcDbEntity
  8
_U+30EC_U+30A4_U+30E4_U+30FC 1
 62
     7
370
    25
100
AcDbVertex
100
AcDb2dVertex
 10
103.624645113353
 20
-140.1592186779182
 30
0.0
  0
VERTEX
  5
1F7
330
1CF
100
AcDbEntity
  8
_U+30EC_U+30A4_U+30E4_U+30FC 1
 62
     7
370
    25
100
AcDbVertex
100
AcDb2dVertex
 10
102.6369517719026
 20
-140.1705689586683
 30
0.0
  0
VERTEX
  5
1F8
330
1CF
100
AcDbEntity
  8
_U+30EC_U+30A4_U+30E4_U+30FC 1
 62
     7
370
    25
100
AcDbVertex
100
AcDb2dVertex
 10
101.6514372130533
 20
-140.1909848086186
 30
0.0
  0
VERTEX
  5
1F9
330
1CF
100
AcDbEntity
  8
_U+30EC_U+30A4_U+30E4_U+30FC 1
 62
     7
370
    25
100
AcDbVertex
100
AcDb2dVertex
 10
100.6693432157535
 20
-140.2204407734683
 30
0.0
  0
VERTEX
  5
1FA
330
1CF
100
AcDbEntity
  8
_U+30EC_U+30A4_U+30E4_U+30FC 1
 62
     7
370
    25
100
AcDbVertex
100
AcDb2dVertex
 10
99.69190676265337
 20
-140.258899828868
 30
0.0
  0
VERTEX
  5
1FB
330
1CF
100
AcDbEntity
  8
_U+30EC_U+30A4_U+30E4_U+30FC 1
 62
     7
370
    25
100
AcDbVertex
100
AcDb2dVertex
 10
98.72035999350284
 20
-140.3063126089681
 30
0.0
  0
VERTEX
  5
1FC
330
1CF
100
AcDbEntity
  8
_U+30EC_U+30A4_U+30E4_U+30FC 1
 62
     7
370
    25
100
AcDbVertex
100
AcDb2dVertex
 10
97.75592703870323
 20
-140.3626197205683
 30
0.0
  0
VERTEX
  5
1FD
330
1CF
100
AcDbEntity
  8
_U+30EC_U+30A4_U+30E4_U+30FC 1
 62
     7
370
    25
100
AcDbVertex
100
AcDb2dVertex
 10
96.79982234290323
 20
-140.4277502003185
 30
0.0
  0
VERTEX
  5
1FE
330
1CF
100
AcDbEntity
  8
_U+30EC_U+30A4_U+30E4_U+30FC 1
 62
     7
370
    25
100
AcDbVertex
100
AcDb2dVertex
 10
95.85325141005245
 20
-140.5016222860179
 30
0.0
  0
VERTEX
  5
1FF
330
1CF
100
AcDbEntity
  8
_U+30EC_U+30A4_U+30E4_U+30FC 1
 62
     7
370
    25
100
AcDbVertex
100
AcDb2dVertex
 10
94.9174063330026
 20
-140.5841426454683
 30
0.0
  0
VERTEX
  5
200
330
1CF
100
AcDbEntity
  8
_U+30EC_U+30A4_U+30E4_U+30FC 1
 62
     7
370
    25
100
AcDbVertex
100
AcDb2dVertex
 10
93.99346653870353
 20
-140.6752079190183
 30
0.0
  0
VERTEX
  5
201
330
1CF
100
AcDbEntity
  8
_U+30EC_U+30A4_U+30E4_U+30FC 1
 62
     7
370
    25
100
AcDbVertex
100
AcDb2dVertex
 10
93.08259655290236
 20
-140.7747024055185
 30
0.0
  0
VERTEX
  5
202
330
1CF
100
AcDbEntity
  8
_U+30EC_U+30A4_U+30E4_U+30FC 1
 62
     7
370
    25
100
AcDbVertex
100
AcDb2dVertex
 10
92.18594301990328
 20
-140.8825011477183
 30
0.0
  0
VERTEX
  5
203
330
1CF
100
AcDbEntity
  8
_U+30EC_U+30A4_U+30E4_U+30FC 1
 62
     7
370
    25
100
AcDbVertex
100
AcDb2dVertex
 10
91.30463693790298
 20
-140.9984683896181
 30
0.0
  0
VERTEX
  5
204
330
1CF
100
AcDbEntity
  8
_U+30EC_U+30A4_U+30E4_U+30FC 1
 62
     7
370
    25
100
AcDbVertex
100
AcDb2dVertex
 10
90.43978844335334
 20
-141.1224579622182
 30
0.0
  0
VERTEX
  5
205
330
1CF
100
AcDbEntity
  8
_U+30EC_U+30A4_U+30E4_U+30FC 1
 62
     7
370
    25
100
AcDbVertex
100
AcDb2dVertex
 10
89.59248606615276
 20
-141.2543140545682
 30
0.0
  0
VERTEX
  5
206
330
1CF
100
AcDbEntity
  8
_U+30EC_U+30A4_U+30E4_U+30FC 1
 62
     7
370
    25
100
AcDbVertex
100
AcDb2dVertex
 10
88.7637982195034
 20
-141.3938696713686
 30
0.0
  0
VERTEX
  5
207
330
1CF
100
AcDbEntity
  8
_U+30EC_U+30A4_U+30E4_U+30FC 1
 62
     7
370
    25
100
AcDbVertex
100
AcDb2dVertex
 10
87.95476947480316
 20
-141.5409493326683
 30
0.0
  0
VERTEX
  5
208
330
1CF
100
AcDbEntity
  8
_U+30EC_U+30A4_U+30E4_U+30FC 1
 62
     7
370
    25
100
AcDbVertex
100
AcDb2dVertex
 10
87.16642056160346
 20
-141.695368302268
 30
0.0
  0
VERTEX
  5
209
330
1CF
100
AcDbEntity
  8
_U+30EC_U+30A4_U+30E4_U+30FC 1
 62
     7
370
    25
100
AcDbVertex
100
AcDb2dVertex
 10
86.39974091700331
 20
-141.8569310452186
 30
0.0
  0
VERTEX
  5
20A
330
1CF
100
AcDbEntity
  8
_U+30EC_U+30A4_U+30E4_U+30FC 1
 62
     7
370
    25
100
AcDbVertex
100
AcDb2dVertex
 10
85.65569911650319
 20
-142.0254346989682
 30
0.0
  0
VERTEX
  5
20B
330
1CF
100
AcDbEntity
  8
_U+30EC_U+30A4_U+30E4_U+30FC 1
 62
     7
370
    25
100
AcDbVertex
100
AcDb2dVertex
 10
84.93523244315246
 20
-142.200666759018
 30
0.0
  0
VERTEX
  5
20C
330
1CF
100
AcDbEntity
  8
_U+30EC_U+30A4_U+30E4_U+30FC 1
 62
     7
370
    25
100
AcDbVertex
100
AcDb2dVertex
 10
84.23924837760283
 20
-142.3824066219683
 30
0.0
  0
VERTEX
  5
20D
330
1CF
100
AcDbEntity
  8
_U+30EC_U+30A4_U+30E4_U+30FC 1
 62
     7
370
    25
100
AcDbVertex
100
AcDb2dVertex
 10
83.56862459830337
 20
-142.5704248138183
 30
0.0
  0
VERTEX
  5
20E
330
1CF
100
AcDbEntity
  8
_U+30EC_U+30A4_U+30E4_U+30FC 1
 62
     7
370
    25
100
AcDbVertex
100
AcDb2dVertex
 10
82.92420600110242
 20
-142.7644845330176
 30
0.0
  0
VERTEX
  5
20F
330
1CF
100
AcDbEntity
  8
_U+30EC_U+30A4_U+30E4_U+30FC 1
 62
     7
370
    25
100
AcDbVertex
100
AcDb2dVertex
 10
82.30680171900343
 20
-142.9643416500683
 30
0.0
  0
VERTEX
  5
210
330
1CF
100
AcDbEntity
  8
_U+30EC_U+30A4_U+30E4_U+30FC 1
 62
     7
370
    25
100
AcDbVertex
100
AcDb2dVertex
 10
81.71719406300261
 20
-143.1697439366686
 30
0.0
  0
VERTEX
  5
211
330
1CF
100
AcDbEntity
  8
_U+30EC_U+30A4_U+30E4_U+30FC 1
 62
     7
370
    25
100
AcDbVertex
100
AcDb2dVertex
 10
81.15612362080277
 20
-143.3804329934681
 30
0.0
  0
VERTEX
  5
212
330
1CF
100
AcDbEntity
  8
_U+30EC_U+30A4_U+30E4_U+30FC 1
 62
     7
370
    25
100
AcDbVertex
100
AcDb2dVertex
 10
80.62429670745264
 20
-143.5961430936184
 30
0.0
  0
VERTEX
  5
213
330
1CF
100
AcDbEntity
  8
_U+30EC_U+30A4_U+30E4_U+30FC 1
 62
     7
370
    25
100
AcDbVertex
100
AcDb2dVertex
 10
80.12238387515345
 20
-143.8166027251682
 30
0.0
  0
VERTEX
  5
214
330
1CF
100
AcDbEntity
  8
_U+30EC_U+30A4_U+30E4_U+30FC 1
 62
     7
370
    25
100
AcDbVertex
100
AcDb2dVertex
 10
79.65101842335315
 20
-144.0415334339683
 30
0.0
  0
VERTEX
  5
215
330
1CF
100
AcDbEntity
  8
_U+30EC_U+30A4_U+30E4_U+30FC 1
 62
     7
370
    25
100
AcDbVertex
100
AcDb2dVertex
 10
79.21079341820332
 20
-144.2706525237182
 30
0.0
  0
VERTEX
  5
216
330
1CF
100
AcDbEntity
  8
_U+30EC_U+30A4_U+30E4_U+30FC 1
 62
     7
370
    25
100
AcDbVertex
100
AcDb2dVertex
 10
78.80226616315306
 20
-144.5036709343181
 30
0.0
  0
VERTEX
  5
217
330
1CF
100
AcDbEntity
  8
_U+30EC_U+30A4_U+30E4_U+30FC 1
 62
     7
370
    25
100
AcDbVertex
100
AcDb2dVertex
 10
78.42594627790328
 20
-144.7402951706182
 30
0.0
  0
VERTEX
  5
218
330
1CF
100
AcDbEntity
  8
_U+30EC_U+30A4_U+30E4_U+30FC 1
 62
     7
370
    25
100
AcDbVertex
100
AcDb2dVertex
 10
78.08231357985336
 20
-144.980227109368
 30
0.0
  0
VERTEX
  5
219
330
1CF
100
AcDbEntity
  8
_U+30EC_U+30A4_U+30E4_U+30FC 1
 62
     7
370
    25
100
AcDbVertex
100
AcDb2dVertex
 10
77.77179424220348
 20
-145.2231643849682
 30
0.0
  0
VERTEX
  5
21A
330
1CF
100
AcDbEntity
  8
_U+30EC_U+30A4_U+30E4_U+30FC 1
 62
     7
370
    25
100
AcDbVertex
100
AcDb2dVertex
 10
77.49478761605283
 20
-145.4688009679184
 30
0.0
  0
VERTEX
  5
21B
330
1CF
100
AcDbEntity
  8
_U+30EC_U+30A4_U+30E4_U+30FC 1
 62
     7
370
    25
100
AcDbVertex
100
AcDb2dVertex
 10
77.25163642815214
 20
-145.7168271648185
 30
0.0
  0
VERTEX
  5
21C
330
1CF
100
AcDbEntity
  8
_U+30EC_U+30A4_U+30E4_U+30FC 1
 62
     7
370
    25
100
AcDbVertex
100
AcDb2dVertex
 10
77.04096287838406
 20
-145.972743549143
 30
0.0
  0
SEQEND
  5
21D
330
1CF
100
AcDbEntity
  8
_U+30EC_U+30A4_U+30E4_U+30FC 1
 62
     7
370
    25
  0
ENDBLK
  5
1CE
330
1CB
100
AcDbEntity
  8
0
100
AcDbBlockEnd
  0
BLOCK
  5
220
330
21E
100
AcDbEntity
  8
0
100
AcDbBlockBegin
  2
block 29
 70
     0
 10
0.0
 20
0.0
 30
0.0
  3
block 29
  1

  0
POLYLINE
  5
222
330
21E
100
AcDbEntity
  8
_U+30EC_U+30A4_U+30E4_U+30FC 1
 62
     7
370
    25
100
AcDb2dPolyline
 66
     1
 10
0.0
 20
0.0
 30
0.0
  0
VERTEX
  5
223
330
222
100
AcDbEntity
  8
_U+30EC_U+30A4_U+30E4_U+30FC 1
 62
     7
370
    25
100
AcDbVertex
100
AcDb2dVertex
 10
76.71600431553442
 20
-146.1347288588934
 30
0.0
  0
VERTEX
  5
224
330
222
100
AcDbEntity
  8
_U+30EC_U+30A4_U+30E4_U+30FC 1
 62
     7
370
    25
100
AcDbVertex
100
AcDb2dVertex
 10
76.72449499718405
 20
-146.118205387743
 30
0.0
  0
SEQEND
  5
225
330
222
100
AcDbEntity
  8
_U+30EC_U+30A4_U+30E4_U+30FC 1
 62
     7
370
    25
  0
ENDBLK
  5
221
330
21E
100
AcDbEntity
  8
0
100
AcDbBlockEnd
  0
BLOCK
  5
228
330
226
100
AcDbEntity
  8
0
100
AcDbBlockBegin
  2
block 30
 70
     0
 10
0.0
 20
0.0
 30
0.0
  3
block 30
  1

  0
POLYLINE
  5
22A
330
226
100
AcDbEntity
  8
_U+30EC_U+30A4_U+30E4_U+30FC 1
 62
     7
370
    25
100
AcDb2dPolyline
 66
     1
 10
0.0
 20
0.0
 30
0.0
  0
VERTEX
  5
22B
330
22A
100
AcDbEntity
  8
_U+30EC_U+30A4_U+30E4_U+30FC 1
 62
     7
370
    25
100
AcDbVertex
100
AcDb2dVertex
 10
131.9227829610348
 20
-146.1070274052429
 30
0.0
  0
VERTEX
  5
22C
330
22A
100
AcDbEntity
  8
_U+30EC_U+30A4_U+30E4_U+30FC 1
 62
     7
370
    25
100
AcDbVertex
100
AcDb2dVertex
 10
131.9371029769351
 20
-146.1347288588934
 30
0.0
  0
SEQEND
  5
22D
330
22A
100
AcDbEntity
  8
_U+30EC_U+30A4_U+30E4_U+30FC 1
 62
     7
370
    25
  0
ENDBLK
  5
229
330
226
100
AcDbEntity
  8
0
100
AcDbBlockEnd
  0
BLOCK
  5
230
330
22E
100
AcDbEntity
  8
0
100
AcDbBlockBegin
  2
block 31
 70
     0
 10
0.0
 20
0.0
 30
0.0
  3
block 31
  1

  0
POLYLINE
  5
232
330
22E
100
AcDbEntity
  8
_U+30EC_U+30A4_U+30E4_U+30FC 1
 62
     7
370
    25
100
AcDb2dPolyline
 66
     1
 10
0.0
 20
0.0
 30
0.0
  0
VERTEX
  5
233
330
232
100
AcDbEntity
  8
_U+30EC_U+30A4_U+30E4_U+30FC 1
 62
     7
370
    25
100
AcDbVertex
100
AcDb2dVertex
 10
76.94537788978506
 20
-145.6845256133935
 30
0.0
  0
VERTEX
  5
234
330
232
100
AcDbEntity
  8
_U+30EC_U+30A4_U+30E4_U+30FC 1
 62
     7
370
    25
100
AcDbVertex
100
AcDb2dVertex
 10
76.93649679773526
 20
-145.7018022024434
 30
0.0
  0
SEQEND
  5
235
330
232
100
AcDbEntity
  8
_U+30EC_U+30A4_U+30E4_U+30FC 1
 62
     7
370
    25
  0
ENDBLK
  5
231
330
22E
100
AcDbEntity
  8
0
100
AcDbBlockEnd
  0
BLOCK
  5
238
330
236
100
AcDbEntity
  8
0
100
AcDbBlockBegin
  2
block 32
 70
     0
 10
0.0
 20
0.0
 30
0.0
  3
block 32
  1

  0
POLYLINE
  5
23A
330
236
100
AcDbEntity
  8
_U+30EC_U+30A4_U+30E4_U+30FC 1
 62
     7
370
    25
100
AcDb2dPolyline
 66
     1
 10
0.0
 20
0.0
 30
0.0
  0
VERTEX
  5
23B
330
23A
100
AcDbEntity
  8
_U+30EC_U+30A4_U+30E4_U+30FC 1
 62
     7
370
    25
100
AcDbVertex
100
AcDb2dVertex
 10
87.9803061520348
 20
-140.5673650703935
 30
0.0
  0
VERTEX
  5
23C
330
23A
100
AcDbEntity
  8
_U+30EC_U+30A4_U+30E4_U+30FC 1
 62
     7
370
    25
100
AcDbVertex
100
AcDb2dVertex
 10
88.36484849803524
 20
-140.4931381678932
 30
0.0
  0
VERTEX
  5
23D
330
23A
100
AcDbEntity
  8
_U+30EC_U+30A4_U+30E4_U+30FC 1
 62
     7
370
    25
100
AcDbVertex
100
AcDb2dVertex
 10
89.16240930908462
 20
-140.3476706089933
 30
0.0
  0
VERTEX
  5
23E
330
23A
100
AcDbEntity
  8
_U+30EC_U+30A4_U+30E4_U+30FC 1
 62
     7
370
    25
100
AcDbVertex
100
AcDb2dVertex
 10
89.97974098078441
 20
-140.2097506204435
 30
0.0
  0
VERTEX
  5
23F
330
23A
100
AcDbEntity
  8
_U+30EC_U+30A4_U+30E4_U+30FC 1
 62
     7
370
    25
100
AcDbVertex
100
AcDb2dVertex
 10
90.81577808013427
 20
-140.079557924693
 30
0.0
  0
VERTEX
  5
240
330
23A
100
AcDbEntity
  8
_U+30EC_U+30A4_U+30E4_U+30FC 1
 62
     7
370
    25
100
AcDbVertex
100
AcDb2dVertex
 10
91.66943133228477
 20
-139.9572614452929
 30
0.0
  0
VERTEX
  5
241
330
23A
100
AcDbEntity
  8
_U+30EC_U+30A4_U+30E4_U+30FC 1
 62
     7
370
    25
100
AcDbVertex
100
AcDb2dVertex
 10
92.53958687533483
 20
-139.843021621243
 30
0.0
  0
VERTEX
  5
242
330
23A
100
AcDbEntity
  8
_U+30EC_U+30A4_U+30E4_U+30FC 1
 62
     7
370
    25
100
AcDbVertex
100
AcDb2dVertex
 10
93.42510998598507
 20
-139.7369869355932
 30
0.0
  0
VERTEX
  5
243
330
23A
100
AcDbEntity
  8
_U+30EC_U+30A4_U+30E4_U+30FC 1
 62
     7
370
    25
100
AcDbVertex
100
AcDb2dVertex
 10
94.32484656923432
 20
-139.639295458343
 30
0.0
  0
VERTEX
  5
244
330
23A
100
AcDbEntity
  8
_U+30EC_U+30A4_U+30E4_U+30FC 1
 62
     7
370
    25
100
AcDbVertex
100
AcDb2dVertex
 10
95.23762390368495
 20
-139.5500752321931
 30
0.0
  0
VERTEX
  5
245
330
23A
100
AcDbEntity
  8
_U+30EC_U+30A4_U+30E4_U+30FC 1
 62
     7
370
    25
100
AcDbVertex
100
AcDb2dVertex
 10
96.1622513865348
 20
-139.469441572443
 30
0.0
  0
VERTEX
  5
246
330
23A
100
AcDbEntity
  8
_U+30EC_U+30A4_U+30E4_U+30FC 1
 62
     7
370
    25
100
AcDbVertex
100
AcDb2dVertex
 10
97.09752351393436
 20
-139.3975009242431
 30
0.0
  0
VERTEX
  5
247
330
23A
100
AcDbEntity
  8
_U+30EC_U+30A4_U+30E4_U+30FC 1
 62
     7
370
    25
100
AcDbVertex
100
AcDb2dVertex
 10
98.04222062578495
 20
-139.3343458484932
 30
0.0
  0
VERTEX
  5
248
330
23A
100
AcDbEntity
  8
_U+30EC_U+30A4_U+30E4_U+30FC 1
 62
     7
370
    25
100
AcDbVertex
100
AcDb2dVertex
 10
98.99511114113456
 20
-139.2800596499434
 30
0.0
  0
VERTEX
  5
249
330
23A
100
AcDbEntity
  8
_U+30EC_U+30A4_U+30E4_U+30FC 1
 62
     7
370
    25
100
AcDbVertex
100
AcDb2dVertex
 10
99.95495342068494
 20
-139.2347117492926
 30
0.0
  0
VERTEX
  5
24A
330
23A
100
AcDbEntity
  8
_U+30EC_U+30A4_U+30E4_U+30FC 1
 62
     7
370
    25
100
AcDbVertex
100
AcDb2dVertex
 10
100.9204950218342
 20
-139.1983630825432
 30
0.0
  0
VERTEX
  5
24B
330
23A
100
AcDbEntity
  8
_U+30EC_U+30A4_U+30E4_U+30FC 1
 62
     7
370
    25
100
AcDbVertex
100
AcDb2dVertex
 10
101.8904777278853
 20
-139.1710599300432
 30
0.0
  0
VERTEX
  5
24C
330
23A
100
AcDbEntity
  8
_U+30EC_U+30A4_U+30E4_U+30FC 1
 62
     7
370
    25
100
AcDbVertex
100
AcDb2dVertex
 10
102.8636364301341
 20
-139.1528377734934
 30
0.0
  0
VERTEX
  5
24D
330
23A
100
AcDbEntity
  8
_U+30EC_U+30A4_U+30E4_U+30FC 1
 62
     7
370
    25
100
AcDbVertex
100
AcDb2dVertex
 10
103.8387025275852
 20
-139.1437205244935
 30
0.0
  0
VERTEX
  5
24E
330
23A
100
AcDbEntity
  8
_U+30EC_U+30A4_U+30E4_U+30FC 1
 62
     7
370
    25
100
AcDbVertex
100
AcDb2dVertex
 10
104.8144047648841
 20
-139.1437205244935
 30
0.0
  0
VERTEX
  5
24F
330
23A
100
AcDbEntity
  8
_U+30EC_U+30A4_U+30E4_U+30FC 1
 62
     7
370
    25
100
AcDbVertex
100
AcDb2dVertex
 10
105.7894708623855
 20
-139.1528377734934
 30
0.0
  0
VERTEX
  5
250
330
23A
100
AcDbEntity
  8
_U+30EC_U+30A4_U+30E4_U+30FC 1
 62
     7
370
    25
100
AcDbVertex
100
AcDb2dVertex
 10
106.7626295646344
 20
-139.1710599300432
 30
0.0
  0
VERTEX
  5
251
330
23A
100
AcDbEntity
  8
_U+30EC_U+30A4_U+30E4_U+30FC 1
 62
     7
370
    25
100
AcDbVertex
100
AcDb2dVertex
 10
107.7326122706354
 20
-139.1983630825432
 30
0.0
  0
VERTEX
  5
252
330
23A
100
AcDbEntity
  8
_U+30EC_U+30A4_U+30E4_U+30FC 1
 62
     7
370
    25
100
AcDbVertex
100
AcDb2dVertex
 10
108.6981538717846
 20
-139.2347117492926
 30
0.0
  0
VERTEX
  5
253
330
23A
100
AcDbEntity
  8
_U+30EC_U+30A4_U+30E4_U+30FC 1
 62
     7
370
    25
100
AcDbVertex
100
AcDb2dVertex
 10
109.6579961513851
 20
-139.2800596499434
 30
0.0
  0
VERTEX
  5
254
330
23A
100
AcDbEntity
  8
_U+30EC_U+30A4_U+30E4_U+30FC 1
 62
     7
370
    25
100
AcDbVertex
100
AcDb2dVertex
 10
110.6108866666846
 20
-139.3343458484932
 30
0.0
  0
VERTEX
  5
255
330
23A
100
AcDbEntity
  8
_U+30EC_U+30A4_U+30E4_U+30FC 1
 62
     7
370
    25
100
AcDbVertex
100
AcDb2dVertex
 10
111.5555837785352
 20
-139.3975009242431
 30
0.0
  0
VERTEX
  5
256
330
23A
100
AcDbEntity
  8
_U+30EC_U+30A4_U+30E4_U+30FC 1
 62
     7
370
    25
100
AcDbVertex
100
AcDb2dVertex
 10
112.4908559059348
 20
-139.469441572443
 30
0.0
  0
VERTEX
  5
257
330
23A
100
AcDbEntity
  8
_U+30EC_U+30A4_U+30E4_U+30FC 1
 62
     7
370
    25
100
AcDbVertex
100
AcDb2dVertex
 10
113.4154833888347
 20
-139.5500752321931
 30
0.0
  0
VERTEX
  5
258
330
23A
100
AcDbEntity
  8
_U+30EC_U+30A4_U+30E4_U+30FC 1
 62
     7
370
    25
100
AcDbVertex
100
AcDb2dVertex
 10
114.3282607232853
 20
-139.639295458343
 30
0.0
  0
VERTEX
  5
259
330
23A
100
AcDbEntity
  8
_U+30EC_U+30A4_U+30E4_U+30FC 1
 62
     7
370
    25
100
AcDbVertex
100
AcDb2dVertex
 10
115.2279973064845
 20
-139.7369869355932
 30
0.0
  0
VERTEX
  5
25A
330
23A
100
AcDbEntity
  8
_U+30EC_U+30A4_U+30E4_U+30FC 1
 62
     7
370
    25
100
AcDbVertex
100
AcDb2dVertex
 10
116.1135204171347
 20
-139.843021621243
 30
0.0
  0
VERTEX
  5
25B
330
23A
100
AcDbEntity
  8
_U+30EC_U+30A4_U+30E4_U+30FC 1
 62
     7
370
    25
100
AcDbVertex
100
AcDb2dVertex
 10
116.9836759602348
 20
-139.9572614452929
 30
0.0
  0
VERTEX
  5
25C
330
23A
100
AcDbEntity
  8
_U+30EC_U+30A4_U+30E4_U+30FC 1
 62
     7
370
    25
100
AcDbVertex
100
AcDb2dVertex
 10
117.8373292123353
 20
-140.079557924693
 30
0.0
  0
VERTEX
  5
25D
330
23A
100
AcDbEntity
  8
_U+30EC_U+30A4_U+30E4_U+30FC 1
 62
     7
370
    25
100
AcDbVertex
100
AcDb2dVertex
 10
118.6733663116852
 20
-140.2097506204435
 30
0.0
  0
VERTEX
  5
25E
330
23A
100
AcDbEntity
  8
_U+30EC_U+30A4_U+30E4_U+30FC 1
 62
     7
370
    25
100
AcDbVertex
100
AcDb2dVertex
 10
119.490697983435
 20
-140.3476706089933
 30
0.0
  0
VERTEX
  5
25F
330
23A
100
AcDbEntity
  8
_U+30EC_U+30A4_U+30E4_U+30FC 1
 62
     7
370
    25
100
AcDbVertex
100
AcDb2dVertex
 10
120.2882587944356
 20
-140.4931381678932
 30
0.0
  0
VERTEX
  5
260
330
23A
100
AcDbEntity
  8
_U+30EC_U+30A4_U+30E4_U+30FC 1
 62
     7
370
    25
100
AcDbVertex
100
AcDb2dVertex
 10
121.0650086437855
 20
-140.6459627758932
 30
0.0
  0
VERTEX
  5
261
330
23A
100
AcDbEntity
  8
_U+30EC_U+30A4_U+30E4_U+30FC 1
 62
     7
370
    25
100
AcDbVertex
100
AcDb2dVertex
 10
121.0943013464356
 20
-140.6519537803935
 30
0.0
  0
SEQEND
  5
262
330
23A
100
AcDbEntity
  8
_U+30EC_U+30A4_U+30E4_U+30FC 1
 62
     7
370
    25
  0
ENDBLK
  5
239
330
236
100
AcDbEntity
  8
0
100
AcDbBlockEnd
  0
BLOCK
  5
265
330
263
100
AcDbEntity
  8
0
100
AcDbBlockBegin
  2
block 33
 70
     0
 10
0.0
 20
0.0
 30
0.0
  3
block 33
  1

  0
SPLINE
  5
267
330
263
100
AcDbEntity
  8
_U+30EC_U+30A4_U+30E4_U+30FC 1
 62
     7
370
    25
100
AcDbSpline
210
0.0
220
0.0
230
1.0
 70
     8
 71
     3
 72
     8
 73
     4
 74
     0
 42
0.0000000001
 43
0.0000000001
 12
1.0
 22
0.0
 32
0.0
 13
1.0
 23
0.0
 33
0.0
 40
0.0
 40
0.0
 40
0.0
 40
0.0
 40
1.0
 40
1.0
 40
1.0
 40
1.0
 10
116.0383261774527
 20
-139.8188736969591
 30
0.0
 10
115.5830601087897
 20
-139.7531896372868
 30
0.0
 10
115.1271275459339
 20
-139.6922111162595
 30
0.0
 10
114.6706014906189
 20
-139.6359478974656
 30
0.0
  0
ENDBLK
  5
266
330
263
100
AcDbEntity
  8
0
100
AcDbBlockEnd
  0
BLOCK
  5
26A
330
268
100
AcDbEntity
  8
0
100
AcDbBlockBegin
  2
block 34
 70
     0
 10
0.0
 20
0.0
 30
0.0
  3
block 34
  1

  0
SPLINE
  5
26C
330
268
100
AcDbEntity
  8
_U+30EC_U+30A4_U+30E4_U+30FC 1
 62
     7
370
    25
100
AcDbSpline
210
0.0
220
0.0
230
1.0
 70
     8
 71
     3
 72
     8
 73
     4
 74
     0
 42
0.0000000001
 43
0.0000000001
 12
1.0
 22
0.0
 32
0.0
 13
1.0
 23
0.0
 33
0.0
 40
0.0
 40
0.0
 40
0.0
 40
0.0
 40
1.0
 40
1.0
 40
1.0
 40
1.0
 10
94.4355092977976
 20
-139.5815321136478
 30
0.0
 10
93.82755067740217
 20
-139.6523774845493
 30
0.0
 10
93.2205850084206
 20
-139.7314986813593
 30
0.0
 10
92.61478111495394
 20
-139.8188736969591
 30
0.0
  0
ENDBLK
  5
26B
330
268
100
AcDbEntity
  8
0
100
AcDbBlockEnd
  0
BLOCK
  5
26F
330
26D
100
AcDbEntity
  8
0
100
AcDbBlockBegin
  2
block 35
 70
     0
 10
0.0
 20
0.0
 30
0.0
  3
block 35
  1

  0
POLYLINE
  5
271
330
26D
100
AcDbEntity
  8
_U+30EC_U+30A4_U+30E4_U+30FC 1
 62
     7
370
    25
100
AcDb2dPolyline
 66
     1
 10
0.0
 20
0.0
 30
0.0
  0
VERTEX
  5
272
330
271
100
AcDbEntity
  8
_U+30EC_U+30A4_U+30E4_U+30FC 1
 62
     7
370
    25
100
AcDbVertex
100
AcDb2dVertex
 10
84.23241377223432
 20
-141.4523173080432
 30
0.0
  0
VERTEX
  5
273
330
271
100
AcDbEntity
  8
_U+30EC_U+30A4_U+30E4_U+30FC 1
 62
     7
370
    25
100
AcDbVertex
100
AcDb2dVertex
 10
84.41506177533417
 20
-141.3493161131429
 30
0.0
  0
VERTEX
  5
274
330
271
100
AcDbEntity
  8
_U+30EC_U+30A4_U+30E4_U+30FC 1
 62
     7
370
    25
100
AcDbVertex
100
AcDb2dVertex
 10
84.8062709008843
 20
-141.1450714163933
 30
0.0
  0
VERTEX
  5
275
330
271
100
AcDbEntity
  8
_U+30EC_U+30A4_U+30E4_U+30FC 1
 62
     7
370
    25
100
AcDbVertex
100
AcDb2dVertex
 10
85.22873819223463
 20
-140.9450413260926
 30
0.0
  0
VERTEX
  5
276
330
271
100
AcDbEntity
  8
_U+30EC_U+30A4_U+30E4_U+30FC 1
 62
     7
370
    25
100
AcDbVertex
100
AcDb2dVertex
 10
85.68179011693468
 20
-140.7495461415929
 30
0.0
  0
VERTEX
  5
277
330
271
100
AcDbEntity
  8
_U+30EC_U+30A4_U+30E4_U+30FC 1
 62
     7
370
    25
100
AcDbVertex
100
AcDb2dVertex
 10
86.16469949833463
 20
-140.5588990272431
 30
0.0
  0
VERTEX
  5
278
330
271
100
AcDbEntity
  8
_U+30EC_U+30A4_U+30E4_U+30FC 1
 62
     7
370
    25
100
AcDbVertex
100
AcDb2dVertex
 10
86.67669445623434
 20
-140.3734050483429
 30
0.0
  0
VERTEX
  5
279
330
271
100
AcDbEntity
  8
_U+30EC_U+30A4_U+30E4_U+30FC 1
 62
     7
370
    25
100
AcDbVertex
100
AcDb2dVertex
 10
87.21695244663509
 20
-140.1933617496431
 30
0.0
  0
VERTEX
  5
27A
330
271
100
AcDbEntity
  8
_U+30EC_U+30A4_U+30E4_U+30FC 1
 62
     7
370
    25
100
AcDbVertex
100
AcDb2dVertex
 10
87.78461069218525
 20
-140.0190568412929
 30
0.0
  0
VERTEX
  5
27B
330
271
100
AcDbEntity
  8
_U+30EC_U+30A4_U+30E4_U+30FC 1
 62
     7
370
    25
100
AcDbVertex
100
AcDb2dVertex
 10
88.37875873198385
 20
-139.8507699343434
 30
0.0
  0
VERTEX
  5
27C
330
271
100
AcDbEntity
  8
_U+30EC_U+30A4_U+30E4_U+30FC 1
 62
     7
370
    25
100
AcDbVertex
100
AcDb2dVertex
 10
88.99844736208456
 20
-139.6887702267431
 30
0.0
  0
VERTEX
  5
27D
330
271
100
AcDbEntity
  8
_U+30EC_U+30A4_U+30E4_U+30FC 1
 62
     7
370
    25
100
AcDbVertex
100
AcDb2dVertex
 10
89.64268118493476
 20
-139.5333168890932
 30
0.0
  0
VERTEX
  5
27E
330
271
100
AcDbEntity
  8
_U+30EC_U+30A4_U+30E4_U+30FC 1
 62
     7
370
    25
100
AcDbVertex
100
AcDb2dVertex
 10
90.31043053023524
 20
-139.3846598357432
 30
0.0
  0
VERTEX
  5
27F
330
271
100
AcDbEntity
  8
_U+30EC_U+30A4_U+30E4_U+30FC 1
 62
     7
370
    25
100
AcDbVertex
100
AcDb2dVertex
 10
91.00062549463422
 20
-139.2430362540435
 30
0.0
  0
VERTEX
  5
280
330
271
100
AcDbEntity
  8
_U+30EC_U+30A4_U+30E4_U+30FC 1
 62
     7
370
    25
100
AcDbVertex
100
AcDb2dVertex
 10
91.71216041198511
 20
-139.1086733038933
 30
0.0
  0
VERTEX
  5
281
330
271
100
AcDbEntity
  8
_U+30EC_U+30A4_U+30E4_U+30FC 1
 62
     7
370
    25
100
AcDbVertex
100
AcDb2dVertex
 10
92.44389534343452
 20
-138.9817858036929
 30
0.0
  0
VERTEX
  5
282
330
271
100
AcDbEntity
  8
_U+30EC_U+30A4_U+30E4_U+30FC 1
 62
     7
370
    25
100
AcDbVertex
100
AcDb2dVertex
 10
93.19465980283432
 20
-138.8625773874934
 30
0.0
  0
VERTEX
  5
283
330
271
100
AcDbEntity
  8
_U+30EC_U+30A4_U+30E4_U+30FC 1
 62
     7
370
    25
100
AcDbVertex
100
AcDb2dVertex
 10
93.96325126638403
 20
-138.7512389620431
 30
0.0
  0
VERTEX
  5
284
330
271
100
AcDbEntity
  8
_U+30EC_U+30A4_U+30E4_U+30FC 1
 62
     7
370
    25
100
AcDbVertex
100
AcDb2dVertex
 10
94.74843889823406
 20
-138.6479483215431
 30
0.0
  0
VERTEX
  5
285
330
271
100
AcDbEntity
  8
_U+30EC_U+30A4_U+30E4_U+30FC 1
 62
     7
370
    25
100
AcDbVertex
100
AcDb2dVertex
 10
95.54896504033509
 20
-138.552871304143
 30
0.0
  0
VERTEX
  5
286
330
271
100
AcDbEntity
  8
_U+30EC_U+30A4_U+30E4_U+30FC 1
 62
     7
370
    25
100
AcDbVertex
100
AcDb2dVertex
 10
96.36354670278403
 20
-138.4661602497929
 30
0.0
  0
VERTEX
  5
287
330
271
100
AcDbEntity
  8
_U+30EC_U+30A4_U+30E4_U+30FC 1
 62
     7
370
    25
100
AcDbVertex
100
AcDb2dVertex
 10
97.1908815239851
 20
-138.3879536140934
 30
0.0
  0
VERTEX
  5
288
330
271
100
AcDbEntity
  8
_U+30EC_U+30A4_U+30E4_U+30FC 1
 62
     7
370
    25
100
AcDbVertex
100
AcDb2dVertex
 10
98.02964255563477
 20
-138.3183767399932
 30
0.0
  0
VERTEX
  5
289
330
271
100
AcDbEntity
  8
_U+30EC_U+30A4_U+30E4_U+30FC 1
 62
     7
370
    25
100
AcDbVertex
100
AcDb2dVertex
 10
98.87848832063435
 20
-138.2575414718432
 30
0.0
  0
VERTEX
  5
28A
330
271
100
AcDbEntity
  8
_U+30EC_U+30A4_U+30E4_U+30FC 1
 62
     7
370
    25
100
AcDbVertex
100
AcDb2dVertex
 10
99.73605834298486
 20
-138.2055446129931
 30
0.0
  0
VERTEX
  5
28B
330
271
100
AcDbEntity
  8
_U+30EC_U+30A4_U+30E4_U+30FC 1
 62
     7
370
    25
100
AcDbVertex
100
AcDb2dVertex
 10
100.6009798531853
 20
-138.1624698538932
 30
0.0
  0
VERTEX
  5
28C
330
271
100
AcDbEntity
  8
_U+30EC_U+30A4_U+30E4_U+30FC 1
 62
     7
370
    25
100
AcDbVertex
100
AcDb2dVertex
 10
101.4718670432841
 20
-138.1283862295433
 30
0.0
  0
VERTEX
  5
28D
330
271
100
AcDbEntity
  8
_U+30EC_U+30A4_U+30E4_U+30FC 1
 62
     7
370
    25
100
AcDbVertex
100
AcDb2dVertex
 10
102.3473260959349
 20
-138.1033477337929
 30
0.0
  0
VERTEX
  5
28E
330
271
100
AcDbEntity
  8
_U+30EC_U+30A4_U+30E4_U+30FC 1
 62
     7
370
    25
100
AcDbVertex
100
AcDb2dVertex
 10
103.2259546255347
 20
-138.0873952477426
 30
0.0
  0
VERTEX
  5
28F
330
271
100
AcDbEntity
  8
_U+30EC_U+30A4_U+30E4_U+30FC 1
 62
     7
370
    25
100
AcDbVertex
100
AcDb2dVertex
 10
104.1063456830848
 20
-138.0805538399931
 30
0.0
  0
VERTEX
  5
290
330
271
100
AcDbEntity
  8
_U+30EC_U+30A4_U+30E4_U+30FC 1
 62
     7
370
    25
100
AcDbVertex
100
AcDb2dVertex
 10
104.9870893859852
 20
-138.0828346948929
 30
0.0
  0
VERTEX
  5
291
330
271
100
AcDbEntity
  8
_U+30EC_U+30A4_U+30E4_U+30FC 1
 62
     7
370
    25
100
AcDbVertex
100
AcDb2dVertex
 10
105.8667752926855
 20
-138.0942339558432
 30
0.0
  0
VERTEX
  5
292
330
271
100
AcDbEntity
  8
_U+30EC_U+30A4_U+30E4_U+30FC 1
 62
     7
370
    25
100
AcDbVertex
100
AcDb2dVertex
 10
106.7439947312351
 20
-138.1147334962428
 30
0.0
  0
VERTEX
  5
293
330
271
100
AcDbEntity
  8
_U+30EC_U+30A4_U+30E4_U+30FC 1
 62
     7
370
    25
100
AcDbVertex
100
AcDb2dVertex
 10
107.6173428480846
 20
-138.144300534193
 30
0.0
  0
VERTEX
  5
294
330
271
100
AcDbEntity
  8
_U+30EC_U+30A4_U+30E4_U+30FC 1
 62
     7
370
    25
100
AcDbVertex
100
AcDb2dVertex
 10
108.4854207967847
 20
-138.1828872464931
 30
0.0
  0
VERTEX
  5
295
330
271
100
AcDbEntity
  8
_U+30EC_U+30A4_U+30E4_U+30FC 1
 62
     7
370
    25
100
AcDbVertex
100
AcDb2dVertex
 10
109.3468390439845
 20
-138.2304326972431
 30
0.0
  0
VERTEX
  5
296
330
271
100
AcDbEntity
  8
_U+30EC_U+30A4_U+30E4_U+30FC 1
 62
     7
370
    25
100
AcDbVertex
100
AcDb2dVertex
 10
110.2002173696852
 20
-138.2868601380432
 30
0.0
  0
VERTEX
  5
297
330
271
100
AcDbEntity
  8
_U+30EC_U+30A4_U+30E4_U+30FC 1
 62
     7
370
    25
100
AcDbVertex
100
AcDb2dVertex
 10
111.044190082485
 20
-138.3520789362931
 30
0.0
  0
VERTEX
  5
298
330
271
100
AcDbEntity
  8
_U+30EC_U+30A4_U+30E4_U+30FC 1
 62
     7
370
    25
100
AcDbVertex
100
AcDb2dVertex
 10
111.8774049018856
 20
-138.4259853466432
 30
0.0
  0
VERTEX
  5
299
330
271
100
AcDbEntity
  8
_U+30EC_U+30A4_U+30E4_U+30FC 1
 62
     7
370
    25
100
AcDbVertex
100
AcDb2dVertex
 10
112.6985274290352
 20
-138.5084609683429
 30
0.0
  0
VERTEX
  5
29A
330
271
100
AcDbEntity
  8
_U+30EC_U+30A4_U+30E4_U+30FC 1
 62
     7
370
    25
100
AcDbVertex
100
AcDb2dVertex
 10
113.5062433814346
 20
-138.5993731307432
 30
0.0
  0
VERTEX
  5
29B
330
271
100
AcDbEntity
  8
_U+30EC_U+30A4_U+30E4_U+30FC 1
 62
     7
370
    25
100
AcDbVertex
100
AcDb2dVertex
 10
114.2992585932349
 20
-138.6985768216931
 30
0.0
  0
VERTEX
  5
29C
330
271
100
AcDbEntity
  8
_U+30EC_U+30A4_U+30E4_U+30FC 1
 62
     7
370
    25
100
AcDbVertex
100
AcDb2dVertex
 10
115.0763034855347
 20
-138.8059127593932
 30
0.0
  0
VERTEX
  5
29D
330
271
100
AcDbEntity
  8
_U+30EC_U+30A4_U+30E4_U+30FC 1
 62
     7
370
    25
100
AcDbVertex
100
AcDb2dVertex
 10
115.8361338113851
 20
-138.9212097060932
 30
0.0
  0
VERTEX
  5
29E
330
271
100
AcDbEntity
  8
_U+30EC_U+30A4_U+30E4_U+30FC 1
 62
     7
370
    25
100
AcDbVertex
100
AcDb2dVertex
 10
116.5775321458857
 20
-139.0442821543934
 30
0.0
  0
VERTEX
  5
29F
330
271
100
AcDbEntity
  8
_U+30EC_U+30A4_U+30E4_U+30FC 1
 62
     7
370
    25
100
AcDbVertex
100
AcDb2dVertex
 10
117.2993123566357
 20
-139.1749334122931
 30
0.0
  0
VERTEX
  5
2A0
330
271
100
AcDbEntity
  8
_U+30EC_U+30A4_U+30E4_U+30FC 1
 62
     7
370
    25
100
AcDbVertex
100
AcDb2dVertex
 10
118.0003166233851
 20
-139.312954446493
 30
0.0
  0
VERTEX
  5
2A1
330
271
100
AcDbEntity
  8
_U+30EC_U+30A4_U+30E4_U+30FC 1
 62
     7
370
    25
100
AcDbVertex
100
AcDb2dVertex
 10
118.6794251238357
 20
-139.4581238821433
 30
0.0
  0
VERTEX
  5
2A2
330
271
100
AcDbEntity
  8
_U+30EC_U+30A4_U+30E4_U+30FC 1
 62
     7
370
    25
100
AcDbVertex
100
AcDb2dVertex
 10
119.3355485831854
 20
-139.6102095455929
 30
0.0
  0
VERTEX
  5
2A3
330
271
100
AcDbEntity
  8
_U+30EC_U+30A4_U+30E4_U+30FC 1
 62
     7
370
    25
100
AcDbVertex
100
AcDb2dVertex
 10
119.9676349793857
 20
-139.7689676931934
 30
0.0
  0
VERTEX
  5
2A4
330
271
100
AcDbEntity
  8
_U+30EC_U+30A4_U+30E4_U+30FC 1
 62
     7
370
    25
100
AcDbVertex
100
AcDb2dVertex
 10
120.5746755038846
 20
-139.9341437824434
 30
0.0
  0
VERTEX
  5
2A5
330
271
100
AcDbEntity
  8
_U+30EC_U+30A4_U+30E4_U+30FC 1
 62
     7
370
    25
100
AcDbVertex
100
AcDb2dVertex
 10
121.155694130585
 20
-140.105474014793
 30
0.0
  0
VERTEX
  5
2A6
330
271
100
AcDbEntity
  8
_U+30EC_U+30A4_U+30E4_U+30FC 1
 62
     7
370
    25
100
AcDbVertex
100
AcDb2dVertex
 10
121.7097640072348
 20
-140.282683792843
 30
0.0
  0
VERTEX
  5
2A7
330
271
100
AcDbEntity
  8
_U+30EC_U+30A4_U+30E4_U+30FC 1
 62
     7
370
    25
100
AcDbVertex
100
AcDb2dVertex
 10
122.2359955345855
 20
-140.4654892631432
 30
0.0
  0
VERTEX
  5
2A8
330
271
100
AcDbEntity
  8
_U+30EC_U+30A4_U+30E4_U+30FC 1
 62
     7
370
    25
100
AcDbVertex
100
AcDb2dVertex
 10
122.7335467969353
 20
-140.6535973162429
 30
0.0
  0
VERTEX
  5
2A9
330
271
100
AcDbEntity
  8
_U+30EC_U+30A4_U+30E4_U+30FC 1
 62
     7
370
    25
100
AcDbVertex
100
AcDb2dVertex
 10
123.2016220723851
 20
-140.8467071291431
 30
0.0
  0
VERTEX
  5
2AA
330
271
100
AcDbEntity
  8
_U+30EC_U+30A4_U+30E4_U+30FC 1
 62
     7
370
    25
100
AcDbVertex
100
AcDb2dVertex
 10
123.6394688521851
 20
-141.0445093941433
 30
0.0
  0
VERTEX
  5
2AB
330
271
100
AcDbEntity
  8
_U+30EC_U+30A4_U+30E4_U+30FC 1
 62
     7
370
    25
100
AcDbVertex
100
AcDb2dVertex
 10
124.0463882719847
 20
-141.2466870902432
 30
0.0
  0
VERTEX
  5
2AC
330
271
100
AcDbEntity
  8
_U+30EC_U+30A4_U+30E4_U+30FC 1
 62
     7
370
    25
100
AcDbVertex
100
AcDb2dVertex
 10
124.4217291509354
 20
-141.4529168326931
 30
0.0
  0
VERTEX
  5
2AD
330
271
100
AcDbEntity
  8
_U+30EC_U+30A4_U+30E4_U+30FC 1
 62
     7
370
    25
100
AcDbVertex
100
AcDb2dVertex
 10
124.4310930406352
 20
-141.4583484222429
 30
0.0
  0
SEQEND
  5
2AE
330
271
100
AcDbEntity
  8
_U+30EC_U+30A4_U+30E4_U+30FC 1
 62
     7
370
    25
  0
ENDBLK
  5
270
330
26D
100
AcDbEntity
  8
0
100
AcDbBlockEnd
  0
BLOCK
  5
2B1
330
2AF
100
AcDbEntity
  8
0
100
AcDbBlockBegin
  2
block 36
 70
     0
 10
0.0
 20
0.0
 30
0.0
  3
block 36
  1

  0
POLYLINE
  5
2B3
330
2AF
100
AcDbEntity
  8
_U+30EC_U+30A4_U+30E4_U+30FC 1
 62
     7
370
    25
100
AcDb2dPolyline
 66
     1
 10
0.0
 20
0.0
 30
0.0
  0
VERTEX
  5
2B4
330
2B3
100
AcDbEntity
  8
_U+30EC_U+30A4_U+30E4_U+30FC 1
 62
     7
370
    25
100
AcDbVertex
100
AcDb2dVertex
 10
84.58527773968419
 20
-141.3545050010428
 30
0.0
  0
VERTEX
  5
2B5
330
2B3
100
AcDbEntity
  8
_U+30EC_U+30A4_U+30E4_U+30FC 1
 62
     7
370
    25
100
AcDbVertex
100
AcDb2dVertex
 10
84.8062709008843
 20
-141.241664003593
 30
0.0
  0
VERTEX
  5
2B6
330
2B3
100
AcDbEntity
  8
_U+30EC_U+30A4_U+30E4_U+30FC 1
 62
     7
370
    25
100
AcDbVertex
100
AcDb2dVertex
 10
85.22873819223463
 20
-141.0416339133432
 30
0.0
  0
VERTEX
  5
2B7
330
2B3
100
AcDbEntity
  8
_U+30EC_U+30A4_U+30E4_U+30FC 1
 62
     7
370
    25
100
AcDbVertex
100
AcDb2dVertex
 10
85.68179011693468
 20
-140.8461387287931
 30
0.0
  0
VERTEX
  5
2B8
330
2B3
100
AcDbEntity
  8
_U+30EC_U+30A4_U+30E4_U+30FC 1
 62
     7
370
    25
100
AcDbVertex
100
AcDb2dVertex
 10
86.16469949833463
 20
-140.6554916144433
 30
0.0
  0
VERTEX
  5
2B9
330
2B3
100
AcDbEntity
  8
_U+30EC_U+30A4_U+30E4_U+30FC 1
 62
     7
370
    25
100
AcDbVertex
100
AcDb2dVertex
 10
86.67669445623434
 20
-140.4699976355431
 30
0.0
  0
VERTEX
  5
2BA
330
2B3
100
AcDbEntity
  8
_U+30EC_U+30A4_U+30E4_U+30FC 1
 62
     7
370
    25
100
AcDbVertex
100
AcDb2dVertex
 10
87.21695244663509
 20
-140.2899543368434
 30
0.0
  0
VERTEX
  5
2BB
330
2B3
100
AcDbEntity
  8
_U+30EC_U+30A4_U+30E4_U+30FC 1
 62
     7
370
    25
100
AcDbVertex
100
AcDb2dVertex
 10
87.78461069218525
 20
-140.1156494284929
 30
0.0
  0
VERTEX
  5
2BC
330
2B3
100
AcDbEntity
  8
_U+30EC_U+30A4_U+30E4_U+30FC 1
 62
     7
370
    25
100
AcDbVertex
100
AcDb2dVertex
 10
88.37875873198385
 20
-139.947362521543
 30
0.0
  0
VERTEX
  5
2BD
330
2B3
100
AcDbEntity
  8
_U+30EC_U+30A4_U+30E4_U+30FC 1
 62
     7
370
    25
100
AcDbVertex
100
AcDb2dVertex
 10
88.99844736208456
 20
-139.7853628139935
 30
0.0
  0
VERTEX
  5
2BE
330
2B3
100
AcDbEntity
  8
_U+30EC_U+30A4_U+30E4_U+30FC 1
 62
     7
370
    25
100
AcDbVertex
100
AcDb2dVertex
 10
89.64268118493476
 20
-139.6299094762935
 30
0.0
  0
VERTEX
  5
2BF
330
2B3
100
AcDbEntity
  8
_U+30EC_U+30A4_U+30E4_U+30FC 1
 62
     7
370
    25
100
AcDbVertex
100
AcDb2dVertex
 10
90.31043053023524
 20
-139.4812524229435
 30
0.0
  0
VERTEX
  5
2C0
330
2B3
100
AcDbEntity
  8
_U+30EC_U+30A4_U+30E4_U+30FC 1
 62
     7
370
    25
100
AcDbVertex
100
AcDb2dVertex
 10
91.00062549463422
 20
-139.3396288412431
 30
0.0
  0
VERTEX
  5
2C1
330
2B3
100
AcDbEntity
  8
_U+30EC_U+30A4_U+30E4_U+30FC 1
 62
     7
370
    25
100
AcDbVertex
100
AcDb2dVertex
 10
91.71216041198511
 20
-139.205265891093
 30
0.0
  0
VERTEX
  5
2C2
330
2B3
100
AcDbEntity
  8
_U+30EC_U+30A4_U+30E4_U+30FC 1
 62
     7
370
    25
100
AcDbVertex
100
AcDb2dVertex
 10
92.44389534343452
 20
-139.0783783909433
 30
0.0
  0
VERTEX
  5
2C3
330
2B3
100
AcDbEntity
  8
_U+30EC_U+30A4_U+30E4_U+30FC 1
 62
     7
370
    25
100
AcDbVertex
100
AcDb2dVertex
 10
93.19465980283432
 20
-138.959169974693
 30
0.0
  0
VERTEX
  5
2C4
330
2B3
100
AcDbEntity
  8
_U+30EC_U+30A4_U+30E4_U+30FC 1
 62
     7
370
    25
100
AcDbVertex
100
AcDb2dVertex
 10
93.96325126638403
 20
-138.8478315492931
 30
0.0
  0
VERTEX
  5
2C5
330
2B3
100
AcDbEntity
  8
_U+30EC_U+30A4_U+30E4_U+30FC 1
 62
     7
370
    25
100
AcDbVertex
100
AcDb2dVertex
 10
94.74843889823406
 20
-138.7445409087431
 30
0.0
  0
VERTEX
  5
2C6
330
2B3
100
AcDbEntity
  8
_U+30EC_U+30A4_U+30E4_U+30FC 1
 62
     7
370
    25
100
AcDbVertex
100
AcDb2dVertex
 10
95.54896504033509
 20
-138.6494638913933
 30
0.0
  0
VERTEX
  5
2C7
330
2B3
100
AcDbEntity
  8
_U+30EC_U+30A4_U+30E4_U+30FC 1
 62
     7
370
    25
100
AcDbVertex
100
AcDb2dVertex
 10
96.36354670278403
 20
-138.5627528369932
 30
0.0
  0
VERTEX
  5
2C8
330
2B3
100
AcDbEntity
  8
_U+30EC_U+30A4_U+30E4_U+30FC 1
 62
     7
370
    25
100
AcDbVertex
100
AcDb2dVertex
 10
97.1908815239851
 20
-138.4845462013431
 30
0.0
  0
VERTEX
  5
2C9
330
2B3
100
AcDbEntity
  8
_U+30EC_U+30A4_U+30E4_U+30FC 1
 62
     7
370
    25
100
AcDbVertex
100
AcDb2dVertex
 10
98.02964255563477
 20
-138.4149693271932
 30
0.0
  0
VERTEX
  5
2CA
330
2B3
100
AcDbEntity
  8
_U+30EC_U+30A4_U+30E4_U+30FC 1
 62
     7
370
    25
100
AcDbVertex
100
AcDb2dVertex
 10
98.87848832063435
 20
-138.3541340590929
 30
0.0
  0
VERTEX
  5
2CB
330
2B3
100
AcDbEntity
  8
_U+30EC_U+30A4_U+30E4_U+30FC 1
 62
     7
370
    25
100
AcDbVertex
100
AcDb2dVertex
 10
99.73605834298486
 20
-138.3021372001934
 30
0.0
  0
VERTEX
  5
2CC
330
2B3
100
AcDbEntity
  8
_U+30EC_U+30A4_U+30E4_U+30FC 1
 62
     7
370
    25
100
AcDbVertex
100
AcDb2dVertex
 10
100.6009798531853
 20
-138.2590624410931
 30
0.0
  0
VERTEX
  5
2CD
330
2B3
100
AcDbEntity
  8
_U+30EC_U+30A4_U+30E4_U+30FC 1
 62
     7
370
    25
100
AcDbVertex
100
AcDb2dVertex
 10
101.4718670432841
 20
-138.2249788167432
 30
0.0
  0
VERTEX
  5
2CE
330
2B3
100
AcDbEntity
  8
_U+30EC_U+30A4_U+30E4_U+30FC 1
 62
     7
370
    25
100
AcDbVertex
100
AcDb2dVertex
 10
102.3473260959349
 20
-138.1999403209932
 30
0.0
  0
VERTEX
  5
2CF
330
2B3
100
AcDbEntity
  8
_U+30EC_U+30A4_U+30E4_U+30FC 1
 62
     7
370
    25
100
AcDbVertex
100
AcDb2dVertex
 10
103.2259546255347
 20
-138.183987834993
 30
0.0
  0
VERTEX
  5
2D0
330
2B3
100
AcDbEntity
  8
_U+30EC_U+30A4_U+30E4_U+30FC 1
 62
     7
370
    25
100
AcDbVertex
100
AcDb2dVertex
 10
104.1063456830848
 20
-138.1771464271931
 30
0.0
  0
VERTEX
  5
2D1
330
2B3
100
AcDbEntity
  8
_U+30EC_U+30A4_U+30E4_U+30FC 1
 62
     7
370
    25
100
AcDbVertex
100
AcDb2dVertex
 10
104.9870893859852
 20
-138.1794272821433
 30
0.0
  0
VERTEX
  5
2D2
330
2B3
100
AcDbEntity
  8
_U+30EC_U+30A4_U+30E4_U+30FC 1
 62
     7
370
    25
100
AcDbVertex
100
AcDb2dVertex
 10
105.8667752926855
 20
-138.1908265430428
 30
0.0
  0
VERTEX
  5
2D3
330
2B3
100
AcDbEntity
  8
_U+30EC_U+30A4_U+30E4_U+30FC 1
 62
     7
370
    25
100
AcDbVertex
100
AcDb2dVertex
 10
106.7439947312351
 20
-138.2113260834932
 30
0.0
  0
VERTEX
  5
2D4
330
2B3
100
AcDbEntity
  8
_U+30EC_U+30A4_U+30E4_U+30FC 1
 62
     7
370
    25
100
AcDbVertex
100
AcDb2dVertex
 10
107.6173428480846
 20
-138.2408931213932
 30
0.0
  0
VERTEX
  5
2D5
330
2B3
100
AcDbEntity
  8
_U+30EC_U+30A4_U+30E4_U+30FC 1
 62
     7
370
    25
100
AcDbVertex
100
AcDb2dVertex
 10
108.4854207967847
 20
-138.2794798336931
 30
0.0
  0
VERTEX
  5
2D6
330
2B3
100
AcDbEntity
  8
_U+30EC_U+30A4_U+30E4_U+30FC 1
 62
     7
370
    25
100
AcDbVertex
100
AcDb2dVertex
 10
109.3468390439845
 20
-138.3270252844434
 30
0.0
  0
VERTEX
  5
2D7
330
2B3
100
AcDbEntity
  8
_U+30EC_U+30A4_U+30E4_U+30FC 1
 62
     7
370
    25
100
AcDbVertex
100
AcDb2dVertex
 10
110.2002173696852
 20
-138.3834527252432
 30
0.0
  0
VERTEX
  5
2D8
330
2B3
100
AcDbEntity
  8
_U+30EC_U+30A4_U+30E4_U+30FC 1
 62
     7
370
    25
100
AcDbVertex
100
AcDb2dVertex
 10
111.044190082485
 20
-138.4486715234934
 30
0.0
  0
VERTEX
  5
2D9
330
2B3
100
AcDbEntity
  8
_U+30EC_U+30A4_U+30E4_U+30FC 1
 62
     7
370
    25
100
AcDbVertex
100
AcDb2dVertex
 10
111.8774049018856
 20
-138.5225779338932
 30
0.0
  0
VERTEX
  5
2DA
330
2B3
100
AcDbEntity
  8
_U+30EC_U+30A4_U+30E4_U+30FC 1
 62
     7
370
    25
100
AcDbVertex
100
AcDb2dVertex
 10
112.6985274290352
 20
-138.6050535555929
 30
0.0
  0
VERTEX
  5
2DB
330
2B3
100
AcDbEntity
  8
_U+30EC_U+30A4_U+30E4_U+30FC 1
 62
     7
370
    25
100
AcDbVertex
100
AcDb2dVertex
 10
113.5062433814346
 20
-138.6959657179432
 30
0.0
  0
VERTEX
  5
2DC
330
2B3
100
AcDbEntity
  8
_U+30EC_U+30A4_U+30E4_U+30FC 1
 62
     7
370
    25
100
AcDbVertex
100
AcDb2dVertex
 10
114.2992585932349
 20
-138.7951694088933
 30
0.0
  0
VERTEX
  5
2DD
330
2B3
100
AcDbEntity
  8
_U+30EC_U+30A4_U+30E4_U+30FC 1
 62
     7
370
    25
100
AcDbVertex
100
AcDb2dVertex
 10
115.0763034855347
 20
-138.9025053465928
 30
0.0
  0
VERTEX
  5
2DE
330
2B3
100
AcDbEntity
  8
_U+30EC_U+30A4_U+30E4_U+30FC 1
 62
     7
370
    25
100
AcDbVertex
100
AcDb2dVertex
 10
115.8361338113851
 20
-139.0178022933432
 30
0.0
  0
VERTEX
  5
2DF
330
2B3
100
AcDbEntity
  8
_U+30EC_U+30A4_U+30E4_U+30FC 1
 62
     7
370
    25
100
AcDbVertex
100
AcDb2dVertex
 10
116.5775321458857
 20
-139.140874741593
 30
0.0
  0
VERTEX
  5
2E0
330
2B3
100
AcDbEntity
  8
_U+30EC_U+30A4_U+30E4_U+30FC 1
 62
     7
370
    25
100
AcDbVertex
100
AcDb2dVertex
 10
117.2993123566357
 20
-139.2715259995435
 30
0.0
  0
VERTEX
  5
2E1
330
2B3
100
AcDbEntity
  8
_U+30EC_U+30A4_U+30E4_U+30FC 1
 62
     7
370
    25
100
AcDbVertex
100
AcDb2dVertex
 10
118.0003166233851
 20
-139.4095470337433
 30
0.0
  0
VERTEX
  5
2E2
330
2B3
100
AcDbEntity
  8
_U+30EC_U+30A4_U+30E4_U+30FC 1
 62
     7
370
    25
100
AcDbVertex
100
AcDb2dVertex
 10
118.6794251238357
 20
-139.554716469343
 30
0.0
  0
VERTEX
  5
2E3
330
2B3
100
AcDbEntity
  8
_U+30EC_U+30A4_U+30E4_U+30FC 1
 62
     7
370
    25
100
AcDbVertex
100
AcDb2dVertex
 10
119.3355485831854
 20
-139.7068021328433
 30
0.0
  0
VERTEX
  5
2E4
330
2B3
100
AcDbEntity
  8
_U+30EC_U+30A4_U+30E4_U+30FC 1
 62
     7
370
    25
100
AcDbVertex
100
AcDb2dVertex
 10
119.9676349793857
 20
-139.8655602804431
 30
0.0
  0
VERTEX
  5
2E5
330
2B3
100
AcDbEntity
  8
_U+30EC_U+30A4_U+30E4_U+30FC 1
 62
     7
370
    25
100
AcDbVertex
100
AcDb2dVertex
 10
120.5746755038846
 20
-140.030736369693
 30
0.0
  0
VERTEX
  5
2E6
330
2B3
100
AcDbEntity
  8
_U+30EC_U+30A4_U+30E4_U+30FC 1
 62
     7
370
    25
100
AcDbVertex
100
AcDb2dVertex
 10
121.155694130585
 20
-140.2020666019933
 30
0.0
  0
VERTEX
  5
2E7
330
2B3
100
AcDbEntity
  8
_U+30EC_U+30A4_U+30E4_U+30FC 1
 62
     7
370
    25
100
AcDbVertex
100
AcDb2dVertex
 10
121.7097640072348
 20
-140.3792763800433
 30
0.0
  0
VERTEX
  5
2E8
330
2B3
100
AcDbEntity
  8
_U+30EC_U+30A4_U+30E4_U+30FC 1
 62
     7
370
    25
100
AcDbVertex
100
AcDb2dVertex
 10
122.2359955345855
 20
-140.5620818503429
 30
0.0
  0
VERTEX
  5
2E9
330
2B3
100
AcDbEntity
  8
_U+30EC_U+30A4_U+30E4_U+30FC 1
 62
     7
370
    25
100
AcDbVertex
100
AcDb2dVertex
 10
122.7335467969353
 20
-140.7501899034432
 30
0.0
  0
VERTEX
  5
2EA
330
2B3
100
AcDbEntity
  8
_U+30EC_U+30A4_U+30E4_U+30FC 1
 62
     7
370
    25
100
AcDbVertex
100
AcDb2dVertex
 10
123.2016220723851
 20
-140.9432997163434
 30
0.0
  0
VERTEX
  5
2EB
330
2B3
100
AcDbEntity
  8
_U+30EC_U+30A4_U+30E4_U+30FC 1
 62
     7
370
    25
100
AcDbVertex
100
AcDb2dVertex
 10
123.6394688521851
 20
-141.1411019813929
 30
0.0
  0
VERTEX
  5
2EC
330
2B3
100
AcDbEntity
  8
_U+30EC_U+30A4_U+30E4_U+30FC 1
 62
     7
370
    25
100
AcDbVertex
100
AcDb2dVertex
 10
124.0463882719847
 20
-141.3432796774428
 30
0.0
  0
VERTEX
  5
2ED
330
2B3
100
AcDbEntity
  8
_U+30EC_U+30A4_U+30E4_U+30FC 1
 62
     7
370
    25
100
AcDbVertex
100
AcDb2dVertex
 10
124.0616887842851
 20
-141.351283881593
 30
0.0
  0
SEQEND
  5
2EE
330
2B3
100
AcDbEntity
  8
_U+30EC_U+30A4_U+30E4_U+30FC 1
 62
     7
370
    25
  0
ENDBLK
  5
2B2
330
2AF
100
AcDbEntity
  8
0
100
AcDbBlockEnd
  0
ENDSEC
  0
SECTION
  2
ENTITIES
  0
INSERT
  5
42
330
1F
100
AcDbEntity
  8
_U+30EC_U+30A4_U+30E4_U+30FC 1
100
AcDbBlockReference
  2
block 2
 10
0.0
 20
0.0
 30
0.0
  0
ENDSEC
  0
SECTION
  2
OBJECTS
  0
DICTIONARY
  5
C
330
0
100
AcDbDictionary
281
     1
  3
ACAD_GROUP
350
D
  3
ACAD_LAYOUT
350
1A
  3
ACAD_MATERIAL
350
3B
  3
ACAD_MLEADERSTYLE
350
2F0
  3
ACAD_MLINESTYLE
350
17
  3
ACAD_PLOTSETTINGS
350
19
  3
ACAD_PLOTSTYLENAME
350
E
  3
ACAD_TABLESTYLE
350
2EF
  3
ACAD_VISUALSTYLE
350
2A
  0
SUN
  5
3F
330
29
100
AcDbSun
 90
        1
290
     0
 63
     7
421
 16777215
 40
1.0
291
     1
 91
  2455826
 92
 54000000
292
     0
 70
     2
 71
   256
280
     1
  0
DICTIONARY
  5
D
102
{ACAD_REACTORS
330
C
102
}
330
C
100
AcDbDictionary
281
     1
  0
DICTIONARY
  5
1A
102
{ACAD_REACTORS
330
C
102
}
330
C
100
AcDbDictionary
281
     1
  3
Layout1
350
1E
  3
Layout2
350
26
  3
Model
350
22
  0
DICTIONARY
  5
3B
102
{ACAD_REACTORS
330
C
102
}
330
C
100
AcDbDictionary
281
     1
  3
ByBlock
350
3D
  3
ByLayer
350
3C
  3
Global
350
3E
  0
DICTIONARY
  5
2F0
102
{ACAD_REACTORS
330
C
102
}
330
C
100
AcDbDictionary
281
     1
  0
DICTIONARY
  5
17
102
{ACAD_REACTORS
330
C
102
}
330
C
100
AcDbDictionary
281
     1
  3
Standard
350
18
  0
DICTIONARY
  5
19
102
{ACAD_REACTORS
330
C
102
}
330
C
100
AcDbDictionary
281
     1
  0
ACDBDICTIONARYWDFLT
  5
E
102
{ACAD_REACTORS
330
C
102
}
330
C
100
AcDbDictionary
281
     1
  3
Normal
350
F
100
AcDbDictionaryWithDefault
340
F
  0
DICTIONARY
  5
2EF
102
{ACAD_REACTORS
330
C
102
}
330
C
100
AcDbDictionary
281
     1
  0
DICTIONARY
  5
2A
102
{ACAD_REACTORS
330
C
102
}
330
C
100
AcDbDictionary
281
     1
  3
2dWireframe
350
2F
  3
3D Hidden
350
31
  3
3dWireframe
350
30
  3
Basic
350
32
  3
Brighten
350
36
  3
ColorChange
350
3A
  3
Conceptual
350
34
  3
Dim
350
35
  3
Facepattern
350
39
  3
Flat
350
2B
  3
FlatWithEdges
350
2C
  3
Gouraud
350
2D
  3
GouraudWithEdges
350
2E
  3
Linepattern
350
38
  3
Realistic
350
33
  3
Thicken
350
37
  0
LAYOUT
  5
1E
102
{ACAD_REACTORS
330
1A
102
}
330
1A
100
AcDbPlotSettings
  1

  2
none_device
  4

  6

 40
0.0
 41
0.0
 42
0.0
 43
0.0
 44
0.0
 45
0.0
 46
0.0
 47
0.0
 48
0.0
 49
0.0
140
0.0
141
0.0
142
1.0
143
1.0
 70
   688
 72
     0
 73
     0
 74
     5
  7

 75
    16
 76
     0
 77
     2
 78
   300
147
1.0
148
0.0
149
0.0
100
AcDbLayout
  1
Layout1
 70
     1
 71
     1
 10
0.0
 20
0.0
 11
12.0
 21
9.0
 12
0.0
 22
0.0
 32
0.0
 14
1.000000000000000E+20
 24
1.000000000000000E+20
 34
1.000000000000000E+20
 15
-1.000000000000000E+20
 25
-1.000000000000000E+20
 35
-1.000000000000000E+20
146
0.0
 13
0.0
 23
0.0
 33
0.0
 16
1.0
 26
0.0
 36
0.0
 17
0.0
 27
1.0
 37
0.0
 76
     0
330
1B
  0
LAYOUT
  5
26
102
{ACAD_REACTORS
330
1A
102
}
330
1A
100
AcDbPlotSettings
  1

  2
none_device
  4

  6

 40
0.0
 41
0.0
 42
0.0
 43
0.0
 44
0.0
 45
0.0
 46
0.0
 47
0.0
 48
0.0
 49
0.0
140
0.0
141
0.0
142
1.0
143
1.0
 70
   688
 72
     0
 73
     0
 74
     5
  7

 75
    16
 76
     0
 77
     2
 78
   300
147
1.0
148
0.0
149
0.0
100
AcDbLayout
  1
Layout2
 70
     1
 71
     2
 10
0.0
 20
0.0
 11
0.0
 21
0.0
 12
0.0
 22
0.0
 32
0.0
 14
0.0
 24
0.0
 34
0.0
 15
0.0
 25
0.0
 35
0.0
146
0.0
 13
0.0
 23
0.0
 33
0.0
 16
1.0
 26
0.0
 36
0.0
 17
0.0
 27
1.0
 37
0.0
 76
     0
330
23
  0
LAYOUT
  5
22
102
{ACAD_REACTORS
330
1A
102
}
330
1A
100
AcDbPlotSettings
  1

  2
none_device
  4

  6

 40
0.0
 41
0.0
 42
0.0
 43
0.0
 44
0.0
 45
0.0
 46
0.0
 47
0.0
 48
0.0
 49
0.0
140
0.0
141
0.0
142
1.0
143
1.0
 70
  1712
 72
     0
 73
     0
 74
     0
  7

 75
     0
 76
     0
 77
     2
 78
   300
147
1.0
148
0.0
149
0.0
100
AcDbLayout
  1
Model
 70
     1
 71
     0
 10
0.0
 20
0.0
 11
12.0
 21
9.0
 12
0.0
 22
0.0
 32
0.0
 14
1.000000000000000E+20
 24
1.000000000000000E+20
 34
1.000000000000000E+20
 15
-1.000000000000000E+20
 25
-1.000000000000000E+20
 35
-1.000000000000000E+20
146
0.0
 13
0.0
 23
0.0
 33
0.0
 16
1.0
 26
0.0
 36
0.0
 17
0.0
 27
1.0
 37
0.0
 76
     0
330
1F
331
29
  0
MATERIAL
  5
3D
102
{ACAD_REACTORS
330
3B
102
}
330
3B
100
AcDbMaterial
  1
ByBlock
 72
     1
 94
      127
  0
MATERIAL
  5
3C
102
{ACAD_REACTORS
330
3B
102
}
330
3B
100
AcDbMaterial
  1
ByLayer
 72
     1
 94
      127
  0
MATERIAL
  5
3E
102
{ACAD_REACTORS
330
3B
102
}
330
3B
100
AcDbMaterial
  1
Global
 72
     1
 94
      127
  0
MLINESTYLE
  5
18
102
{ACAD_REACTORS
330
17
102
}
330
17
100
AcDbMlineStyle
  2
Standard
 70
     0
  3

 62
   256
 51
90.0
 52
90.0
 71
     2
 49
0.5
 62
   256
  6
BYLAYER
 49
-0.5
 62
   256
  6
BYLAYER
  0
ACDBPLACEHOLDER
  5
F
102
{ACAD_REACTORS
330
E
102
}
330
E
  0
VISUALSTYLE
  5
2F
102
{ACAD_REACTORS
330
2A
102
}
330
2A
100
AcDbVisualStyle
  2
2dWireframe
 70
     4
177
     2
291
     0
 71
     0
176
     1
 72
     2
176
     1
 73
     0
176
     1
 90
        0
176
     1
 40
-0.6
176
     1
 41
-30.0
176
     1
 62
     5
 63
     7
421
 16777215
176
     1
 74
     1
176
     1
 91
        4
176
     1
 64
     7
176
     1
 65
   257
176
     1
 75
     1
176
     1
175
     1
176
     1
 42
1.0
176
     1
 92
        0
176
     1
 66
   257
176
     1
 43
1.0
176
     1
 76
     1
176
     1
 77
     6
176
     1
 78
     2
176
     1
 67
     7
176
     1
 79
     5
176
     1
170
     0
176
     1
171
     0
176
     1
290
     0
176
     1
 93
        1
176
     1
 44
0.0
176
     1
173
     0
176
     1
  0
VISUALSTYLE
  5
31
102
{ACAD_REACTORS
330
2A
102
}
330
2A
100
AcDbVisualStyle
  2
3D Hidden
 70
     6
177
     2
291
     0
 71
     1
176
     1
 72
     2
176
     1
 73
     2
176
     1
 90
        0
176
     1
 40
-0.6
176
     1
 41
-30.0
176
     1
 62
     5
 63
     7
421
 16777215
176
     1
 74
     2
176
     1
 91
        2
176
     1
 64
     7
176
     1
 65
   257
176
     1
 75
     2
176
     1
175
     1
176
     1
 42
40.0
176
     1
 92
        0
176
     1
 66
   257
176
     1
 43
1.0
176
     1
 76
     1
176
     1
 77
     6
176
     1
 78
     2
176
     1
 67
     7
176
     1
 79
     3
176
     1
170
     0
176
     1
171
     0
176
     1
290
     0
176
     1
 93
        1
176
     1
 44
0.0
176
     1
173
     0
176
     1
  0
VISUALSTYLE
  5
30
102
{ACAD_REACTORS
330
2A
102
}
330
2A
100
AcDbVisualStyle
  2
3dWireframe
 70
     5
177
     2
291
     0
 71
     0
176
     1
 72
     2
176
     1
 73
     0
176
     1
 90
        0
176
     1
 40
-0.6
176
     1
 41
-30.0
176
     1
 62
     5
 63
     7
421
 16777215
176
     1
 74
     1
176
     1
 91
        4
176
     1
 64
     7
176
     1
 65
   257
176
     1
 75
     1
176
     1
175
     1
176
     1
 42
1.0
176
     1
 92
        0
176
     1
 66
   257
176
     1
 43
1.0
176
     1
 76
     1
176
     1
 77
     6
176
     1
 78
     2
176
     1
 67
     7
176
     1
 79
     5
176
     1
170
     0
176
     1
171
     0
176
     1
290
     0
176
     1
 93
        1
176
     1
 44
0.0
176
     1
173
     0
176
     1
  0
VISUALSTYLE
  5
32
102
{ACAD_REACTORS
330
2A
102
}
330
2A
100
AcDbVisualStyle
  2
Basic
 70
     7
177
     2
291
     1
 71
     1
176
     1
 72
     0
176
     1
 73
     1
176
     1
 90
        0
176
     1
 40
-0.6
176
     1
 41
-30.0
176
     1
 62
     5
 63
     7
421
 16777215
176
     1
 74
     0
176
     1
 91
        4
176
     1
 64
     7
176
     1
 65
   257
176
     1
 75
     1
176
     1
175
     1
176
     1
 42
1.0
176
     1
 92
        8
176
     1
 66
     7
176
     1
 43
1.0
176
     1
 76
     1
176
     1
 77
     6
176
     1
 78
     2
176
     1
 67
     7
176
     1
 79
     5
176
     1
170
     0
176
     1
171
     0
176
     1
290
     0
176
     1
 93
        1
176
     1
 44
0.0
176
     1
173
     0
176
     1
  0
VISUALSTYLE
  5
36
102
{ACAD_REACTORS
330
2A
102
}
330
2A
100
AcDbVisualStyle
  2
Brighten
 70
    12
177
     2
291
     1
 71
     2
176
     1
 72
     2
176
     1
 73
     0
176
     1
 90
        0
176
     1
 40
-0.6
176
     1
 41
-30.0
176
     1
 62
     5
 63
     7
421
 16777215
176
     1
 74
     1
176
     1
 91
        4
176
     1
 64
     7
176
     1
 65
   257
176
     1
 75
     1
176
     1
175
     1
176
     1
 42
1.0
176
     1
 92
        8
176
     1
 66
     7
176
     1
 43
1.0
176
     1
 76
     1
176
     1
 77
     6
176
     1
 78
     2
176
     1
 67
     7
176
     1
 79
     5
176
     1
170
     0
176
     1
171
     0
176
     1
290
     0
176
     1
 93
        1
176
     1
 44
50.0
176
     1
173
     0
176
     1
  0
VISUALSTYLE
  5
3A
102
{ACAD_REACTORS
330
2A
102
}
330
2A
100
AcDbVisualStyle
  2
ColorChange
 70
    16
177
     2
291
     1
 71
     2
176
     1
 72
     2
176
     1
 73
     3
176
     1
 90
        0
176
     1
 40
-0.6
176
     1
 41
-30.0
176
     1
 62
     5
 63
     8
421
  8421504
176
     1
 74
     1
176
     1
 91
        4
176
     1
 64
     7
176
     1
 65
   257
176
     1
 75
     1
176
     1
175
     1
176
     1
 42
1.0
176
     1
 92
        8
176
     1
 66
     8
424
  8421504
176
     1
 43
1.0
176
     1
 76
     1
176
     1
 77
     6
176
     1
 78
     2
176
     1
 67
     7
176
     1
 79
     5
176
     1
170
     0
176
     1
171
     0
176
     1
290
     0
176
     1
 93
        1
176
     1
 44
0.0
176
     1
173
     0
176
     1
  0
VISUALSTYLE
  5
34
102
{ACAD_REACTORS
330
2A
102
}
330
2A
100
AcDbVisualStyle
  2
Conceptual
 70
     9
177
     2
291
     0
 71
     3
176
     1
 72
     2
176
     1
 73
     0
176
     1
 90
        0
176
     1
 40
-0.6
176
     1
 41
-30.0
176
     1
 62
     5
 63
     7
421
 16777215
176
     1
 74
     2
176
     1
 91
        2
176
     1
 64
     7
176
     1
 65
   257
176
     1
 75
     1
176
     1
175
     1
176
     1
 42
40.0
176
     1
 92
        8
176
     1
 66
     7
176
     1
 43
1.0
176
     1
 76
     1
176
     1
 77
     6
176
     1
 78
     2
176
     1
 67
     7
176
     1
 79
     3
176
     1
170
     0
176
     1
171
     0
176
     1
290
     0
176
     1
 93
        1
176
     1
 44
0.0
176
     1
173
     0
176
     1
  0
VISUALSTYLE
  5
35
102
{ACAD_REACTORS
330
2A
102
}
330
2A
100
AcDbVisualStyle
  2
Dim
 70
    11
177
     2
291
     1
 71
     2
176
     1
 72
     2
176
     1
 73
     0
176
     1
 90
        0
176
     1
 40
-0.6
176
     1
 41
-30.0
176
     1
 62
     5
 63
     7
421
 16777215
176
     1
 74
     1
176
     1
 91
        4
176
     1
 64
     7
176
     1
 65
   257
176
     1
 75
     1
176
     1
175
     1
176
     1
 42
1.0
176
     1
 92
        8
176
     1
 66
     7
176
     1
 43
1.0
176
     1
 76
     1
176
     1
 77
     6
176
     1
 78
     2
176
     1
 67
     7
176
     1
 79
     5
176
     1
170
     0
176
     1
171
     0
176
     1
290
     0
176
     1
 93
        1
176
     1
 44
-50.0
176
     1
173
     0
176
     1
  0
VISUALSTYLE
  5
39
102
{ACAD_REACTORS
330
2A
102
}
330
2A
100
AcDbVisualStyle
  2
Facepattern
 70
    15
177
     2
291
     1
 71
     2
176
     1
 72
     2
176
     1
 73
     0
176
     1
 90
        0
176
     1
 40
-0.6
176
     1
 41
-30.0
176
     1
 62
     5
 63
     7
421
 16777215
176
     1
 74
     1
176
     1
 91
        4
176
     1
 64
     7
176
     1
 65
   257
176
     1
 75
     1
176
     1
175
     1
176
     1
 42
1.0
176
     1
 92
        8
176
     1
 66
     7
176
     1
 43
1.0
176
     1
 76
     1
176
     1
 77
     6
176
     1
 78
     2
176
     1
 67
     7
176
     1
 79
     5
176
     1
170
     0
176
     1
171
     0
176
     1
290
     0
176
     1
 93
        1
176
     1
 44
0.0
176
     1
173
     0
176
     1
  0
VISUALSTYLE
  5
2B
102
{ACAD_REACTORS
330
2A
102
}
330
2A
100
AcDbVisualStyle
  2
Flat
 70
     0
177
     2
291
     1
 71
     2
176
     1
 72
     1
176
     1
 73
     1
176
     1
 90
        2
176
     1
 40
-0.6
176
     1
 41
30.0
176
     1
 62
     5
 63
     7
421
 16777215
176
     1
 74
     0
176
     1
 91
        4
176
     1
 64
     7
176
     1
 65
   257
176
     1
 75
     1
176
     1
175
     1
176
     1
 42
1.0
176
     1
 92
        8
176
     1
 66
     7
176
     1
 43
1.0
176
     1
 76
     1
176
     1
 77
     6
176
     1
 78
     2
176
     1
 67
     7
176
     1
 79
     5
176
     1
170
     0
176
     1
171
     0
176
     1
290
     0
176
     1
 93
       13
176
     1
 44
0.0
176
     1
173
     0
176
     1
  0
VISUALSTYLE
  5
2C
102
{ACAD_REACTORS
330
2A
102
}
330
2A
100
AcDbVisualStyle
  2
FlatWithEdges
 70
     1
177
     2
291
     1
 71
     2
176
     1
 72
     1
176
     1
 73
     1
176
     1
 90
        2
176
     1
 40
-0.6
176
     1
 41
30.0
176
     1
 62
     5
 63
     7
421
 16777215
176
     1
 74
     1
176
     1
 91
        4
176
     1
 64
     7
176
     1
 65
   257
176
     1
 75
     1
176
     1
175
     1
176
     1
 42
1.0
176
     1
 92
        0
176
     1
 66
   257
176
     1
 43
1.0
176
     1
 76
     1
176
     1
 77
     6
176
     1
 78
     2
176
     1
 67
     7
176
     1
 79
     5
176
     1
170
     0
176
     1
171
     0
176
     1
290
     0
176
     1
 93
       13
176
     1
 44
0.0
176
     1
173
     0
176
     1
  0
VISUALSTYLE
  5
2D
102
{ACAD_REACTORS
330
2A
102
}
330
2A
100
AcDbVisualStyle
  2
Gouraud
 70
     2
177
     2
291
     1
 71
     2
176
     1
 72
     2
176
     1
 73
     1
176
     1
 90
        2
176
     1
 40
-0.6
176
     1
 41
30.0
176
     1
 62
     5
 63
     7
421
 16777215
176
     1
 74
     0
176
     1
 91
        4
176
     1
 64
     7
176
     1
 65
   257
176
     1
 75
     1
176
     1
175
     1
176
     1
 42
1.0
176
     1
 92
        0
176
     1
 66
     7
176
     1
 43
1.0
176
     1
 76
     1
176
     1
 77
     6
176
     1
 78
     2
176
     1
 67
     7
176
     1
 79
     5
176
     1
170
     0
176
     1
171
     0
176
     1
290
     0
176
     1
 93
       13
176
     1
 44
0.0
176
     1
173
     0
176
     1
  0
VISUALSTYLE
  5
2E
102
{ACAD_REACTORS
330
2A
102
}
330
2A
100
AcDbVisualStyle
  2
GouraudWithEdges
 70
     3
177
     2
291
     1
 71
     2
176
     1
 72
     2
176
     1
 73
     1
176
     1
 90
        2
176
     1
 40
-0.6
176
     1
 41
30.0
176
     1
 62
     5
 63
     7
421
 16777215
176
     1
 74
     1
176
     1
 91
        4
176
     1
 64
     7
176
     1
 65
   257
176
     1
 75
     1
176
     1
175
     1
176
     1
 42
1.0
176
     1
 92
        0
176
     1
 66
   257
176
     1
 43
1.0
176
     1
 76
     1
176
     1
 77
     6
176
     1
 78
     2
176
     1
 67
     7
176
     1
 79
     5
176
     1
170
     0
176
     1
171
     0
176
     1
290
     0
176
     1
 93
       13
176
     1
 44
0.0
176
     1
173
     0
176
     1
  0
VISUALSTYLE
  5
38
102
{ACAD_REACTORS
330
2A
102
}
330
2A
100
AcDbVisualStyle
  2
Linepattern
 70
    14
177
     2
291
     1
 71
     2
176
     1
 72
     2
176
     1
 73
     0
176
     1
 90
        0
176
     1
 40
-0.6
176
     1
 41
-30.0
176
     1
 62
     5
 63
     7
421
 16777215
176
     1
 74
     1
176
     1
 91
        4
176
     1
 64
     7
176
     1
 65
   257
176
     1
 75
     7
176
     1
175
     7
176
     1
 42
1.0
176
     1
 92
        8
176
     1
 66
     7
176
     1
 43
1.0
176
     1
 76
     1
176
     1
 77
     6
176
     1
 78
     2
176
     1
 67
     7
176
     1
 79
     5
176
     1
170
     0
176
     1
171
     0
176
     1
290
     0
176
     1
 93
        1
176
     1
 44
0.0
176
     1
173
     0
176
     1
  0
VISUALSTYLE
  5
33
102
{ACAD_REACTORS
330
2A
102
}
330
2A
100
AcDbVisualStyle
  2
Realistic
 70
     8
177
     2
291
     0
 71
     2
176
     1
 72
     2
176
     1
 73
     0
176
     1
 90
        0
176
     1
 40
-0.6
176
     1
 41
-30.0
176
     1
 62
     5
 63
     7
421
 16777215
176
     1
 74
     1
176
     1
 91
        0
176
     1
 64
     7
176
     1
 65
   257
176
     1
 75
     1
176
     1
175
     1
176
     1
 42
1.0
176
     1
 92
        8
176
     1
 66
     8
424
  7895160
176
     1
 43
1.0
176
     1
 76
     1
176
     1
 77
     6
176
     1
 78
     2
176
     1
 67
     7
176
     1
 79
     5
176
     1
170
     0
176
     1
171
     0
176
     1
290
     0
176
     1
 93
       13
176
     1
 44
0.0
176
     1
173
     0
176
     1
  0
VISUALSTYLE
  5
37
102
{ACAD_REACTORS
330
2A
102
}
330
2A
100
AcDbVisualStyle
  2
Thicken
 70
    13
177
     2
291
     1
 71
     2
176
     1
 72
     2
176
     1
 73
     0
176
     1
 90
        0
176
     1
 40
-0.6
176
     1
 41
-30.0
176
     1
 62
     5
 63
     7
421
 16777215
176
     1
 74
     1
176
     1
 91
        4
176
     1
 64
     7
176
     1
 65
   257
176
     1
 75
     1
176
     1
175
     1
176
     1
 42
1.0
176
     1
 92
       12
176
     1
 66
     7
176
     1
 43
1.0
176
     1
 76
     1
176
     1
 77
     6
176
     1
 78
     2
176
     1
 67
     7
176
     1
 79
     5
176
     1
170
     0
176
     1
171
     0
176
     1
290
     0
176
     1
 93
        1
176
     1
 44
0.0
176
     1
173
     0
176
     1
  0
ENDSEC
  0
EOF
